  0
SECTION
  2
HEADER
  9
$ACADVER
  1
AC1015
  9
$ACADMAINTVER
 70
     6
  9
$DWGCODEPAGE
  3
ANSI_1250
  9
$INSBASE
 10
0.0
 20
0.0
 30
0.0
  9
$EXTMIN
 10
0.0
 20
0.0
 30
0.0
  9
$EXTMAX
 10
20000.0
 20
10000.0
 30
0.0
  9
$LIMMIN
 10
0.0
 20
0.0
  9
$LIMMAX
 10
20000.0
 20
10000.0
  9
$ORTHOMODE
 70
     0
  9
$REGENMODE
 70
     1
  9
$FILLMODE
 70
     1
  9
$QTEXTMODE
 70
     0
  9
$MIRRTEXT
 70
     1
  9
$LTSCALE
 40
1.0
  9
$ATTMODE
 70
     1
  9
$TEXTSIZE
 40
2.0
  9
$TRACEWID
 40
1.0
  9
$TEXTSTYLE
  7
Standard
  9
$CLAYER
  8
0
  9
$CELTYPE
  6
ByLayer
  9
$CECOLOR
 62
   256
  9
$CELTSCALE
 40
1.0
  9
$DISPSILH
 70
     0
  9
$DIMSCALE
 40
1.0
  9
$DIMASZ
 40
2.0
  9
$DIMEXO
 40
1.0
  9
$DIMDLI
 40
3.75
  9
$DIMRND
 40
0.0
  9
$DIMDLE
 40
0.0
  9
$DIMEXE
 40
1.0
  9
$DIMTP
 40
0.0
  9
$DIMTM
 40
0.0
  9
$DIMTXT
 40
2.0
  9
$DIMCEN
 40
2.5
  9
$DIMTSZ
 40
0.0
  9
$DIMTOL
 70
     0
  9
$DIMLIM
 70
     0
  9
$DIMTIH
 70
     1
  9
$DIMTOH
 70
     1
  9
$DIMSE1
 70
     0
  9
$DIMSE2
 70
     0
  9
$DIMTAD
 70
     1
  9
$DIMZIN
 70
     0
  9
$DIMBLK
  1

  9
$DIMASO
 70
     1
  9
$DIMSHO
 70
     1
  9
$DIMPOST
  1

  9
$DIMAPOST
  1

  9
$DIMALT
 70
     0
  9
$DIMALTD
 70
     3
  9
$DIMALTF
 40
0.0393700787
  9
$DIMLFAC
 40
1.0
  9
$DIMTOFL
 70
     1
  9
$DIMTVP
 40
0.0
  9
$DIMTIX
 70
     0
  9
$DIMSOXD
 70
     0
  9
$DIMSAH
 70
     0
  9
$DIMBLK1
  1

  9
$DIMBLK2
  1

  9
$DIMSTYLE
  2
ISO-25
  9
$DIMCLRD
 70
     0
  9
$DIMCLRE
 70
     0
  9
$DIMCLRT
 70
     0
  9
$DIMTFAC
 40
1.0
  9
$DIMGAP
 40
1.524
  9
$DIMJUST
 70
     0
  9
$DIMSD1
 70
     0
  9
$DIMSD2
 70
     0
  9
$DIMTOLJ
 70
     0
  9
$DIMTZIN
 70
     0
  9
$DIMALTZ
 70
     0
  9
$DIMALTTZ
 70
     0
  9
$DIMUPT
 70
     0
  9
$DIMDEC
 70
     2
  9
$DIMTDEC
 70
     0
  9
$DIMALTU
 70
     2
  9
$DIMALTTD
 70
     3
  9
$DIMTXSTY
  7
Standard
  9
$DIMAUNIT
 70
     0
  9
$DIMADEC
 70
     2
  9
$DIMALTRND
 40
0.0
  9
$DIMAZIN
 70
     0
  9
$DIMDSEP
 70
    44
  9
$DIMATFIT
 70
     3
  9
$DIMFRAC
 70
     0
  9
$DIMLDRBLK
  1

  9
$DIMLUNIT
 70
     2
  9
$DIMLWD
 70
    -2
  9
$DIMLWE
 70
    -2
  9
$DIMTMOVE
 70
     0
  9
$LUNITS
 70
     2
  9
$LUPREC
 70
     3
  9
$SKETCHINC
 40
1.0
  9
$FILLETRAD
 40
10.0
  9
$AUNITS
 70
     0
  9
$AUPREC
 70
     2
  9
$MENU
  1
.
  9
$ELEVATION
 40
0.0
  9
$PELEVATION
 40
0.0
  9
$THICKNESS
 40
0.0
  9
$LIMCHECK
 70
     0
  9
$CHAMFERA
 40
0.0
  9
$CHAMFERB
 40
0.0
  9
$CHAMFERC
 40
0.0
  9
$CHAMFERD
 40
0.0
  9
$SKPOLY
 70
     0
  9
$TDCREATE
 40
2460523.436816331
  9
$TDUCREATE
 40
2460523.353482998
  9
$TDUPDATE
 40
2460523.436816898
  9
$TDUUPDATE
 40
2460523.353483565
  9
$TDINDWG
 40
0.0000000116
  9
$TDUSRTIMER
 40
0.0000000116
  9
$USRTIMER
 70
     1
  9
$ANGBASE
 50
0.0
  9
$ANGDIR
 70
     0
  9
$PDMODE
 70
     0
  9
$PDSIZE
 40
-1.0
  9
$PLINEWID
 40
0.0
  9
$SPLFRAME
 70
     0
  9
$SPLINETYPE
 70
     6
  9
$SPLINESEGS
 70
     8
  9
$HANDSEED
  5
165
  9
$SURFTAB1
 70
     6
  9
$SURFTAB2
 70
     6
  9
$SURFTYPE
 70
     6
  9
$SURFU
 70
     6
  9
$SURFV
 70
     6
  9
$UCSBASE
  2

  9
$UCSNAME
  2

  9
$UCSORG
 10
0.0
 20
0.0
 30
0.0
  9
$UCSXDIR
 10
1.0
 20
0.0
 30
0.0
  9
$UCSYDIR
 10
0.0
 20
1.0
 30
0.0
  9
$UCSORTHOREF
  2

  9
$UCSORTHOVIEW
 70
     0
  9
$UCSORGTOP
 10
0.0
 20
0.0
 30
0.0
  9
$UCSORGBOTTOM
 10
0.0
 20
0.0
 30
0.0
  9
$UCSORGLEFT
 10
0.0
 20
0.0
 30
0.0
  9
$UCSORGRIGHT
 10
0.0
 20
0.0
 30
0.0
  9
$UCSORGFRONT
 10
0.0
 20
0.0
 30
0.0
  9
$UCSORGBACK
 10
0.0
 20
0.0
 30
0.0
  9
$PUCSBASE
  2

  9
$PUCSNAME
  2

  9
$PUCSORG
 10
0.0
 20
0.0
 30
0.0
  9
$PUCSXDIR
 10
1.0
 20
0.0
 30
0.0
  9
$PUCSYDIR
 10
0.0
 20
1.0
 30
0.0
  9
$PUCSORTHOREF
  2

  9
$PUCSORTHOVIEW
 70
     0
  9
$PUCSORGTOP
 10
0.0
 20
0.0
 30
0.0
  9
$PUCSORGBOTTOM
 10
0.0
 20
0.0
 30
0.0
  9
$PUCSORGLEFT
 10
0.0
 20
0.0
 30
0.0
  9
$PUCSORGRIGHT
 10
0.0
 20
0.0
 30
0.0
  9
$PUCSORGFRONT
 10
0.0
 20
0.0
 30
0.0
  9
$PUCSORGBACK
 10
0.0
 20
0.0
 30
0.0
  9
$USERI1
 70
     0
  9
$USERI2
 70
     0
  9
$USERI3
 70
     0
  9
$USERI4
 70
     0
  9
$USERI5
 70
     0
  9
$USERR1
 40
0.0
  9
$USERR2
 40
0.0
  9
$USERR3
 40
0.0
  9
$USERR4
 40
0.0
  9
$USERR5
 40
0.0
  9
$WORLDVIEW
 70
     1
  9
$SHADEDGE
 70
     3
  9
$SHADEDIF
 70
    70
  9
$TILEMODE
 70
     1
  9
$MAXACTVP
 70
    64
  9
$PINSBASE
 10
0.0
 20
0.0
 30
0.0
  9
$PLIMCHECK
 70
     0
  9
$PEXTMIN
 10
1.0000000000E+20
 20
1.0000000000E+20
 30
1.0000000000E+20
  9
$PEXTMAX
 10
-1.0000000000E+20
 20
-1.0000000000E+20
 30
-1.0000000000E+20
  9
$PLIMMIN
 10
0.0
 20
0.0
  9
$PLIMMAX
 10
420.0
 20
297.0
  9
$UNITMODE
 70
     0
  9
$VISRETAIN
 70
     1
  9
$PLINEGEN
 70
     0
  9
$PSLTSCALE
 70
     1
  9
$TREEDEPTH
 70
  3020
  9
$CMLSTYLE
  2
Standard
  9
$CMLJUST
 70
     0
  9
$CMLSCALE
 40
20.0
  9
$PROXYGRAPHICS
 70
     1
  9
$MEASUREMENT
 70
     1
  9
$CELWEIGHT
370
    -1
  9
$ENDCAPS
280
     0
  9
$JOINSTYLE
280
     0
  9
$LWDISPLAY
290
     1
  9
$INSUNITS
 70
     4
  9
$HYPERLINKBASE
  1

  9
$STYLESHEET
  1

  9
$XEDIT
290
     1
  9
$CEPSNTYPE
380
     0
  9
$PSTYLEMODE
290
     1
  9
$FINGERPRINTGUID
  2
{59a762e3-099e-4ca6-92bf-b8b0a0cd4ec0}
  9
$VERSIONGUID
  2
{FAEB1C32-E019-11D5-929B-00C0DF256EC4}
  9
$EXTNAMES
290
     1
  9
$PSVPSCALE
 40
0.0
  9
$OLESTARTUP
290
     0
  0
ENDSEC
  0
SECTION
  2
CLASSES
  0
CLASS
  1
ACDBDICTIONARYWDFLT
  2
AcDbDictionaryWithDefault
  3
ObjectDBX Classes
 90
        0
280
     0
281
     0
  0
CLASS
  1
VISUALSTYLE
  2
AcDbVisualStyle
  3
ObjectDBX Classes
 90
     4095
280
     0
281
     0
  0
CLASS
  1
MATERIAL
  2
AcDbMaterial
  3
ObjectDBX Classes
 90
     1153
280
     0
281
     0
  0
CLASS
  1
SCALE
  2
AcDbScale
  3
ObjectDBX Classes
 90
     1153
280
     0
281
     0
  0
CLASS
  1
TABLESTYLE
  2
AcDbTableStyle
  3
ObjectDBX Classes
 90
     4095
280
     0
281
     0
  0
CLASS
  1
MLEADERSTYLE
  2
AcDbMLeaderStyle
  3
ACDB_MLEADERSTYLE_CLASS
 90
     4095
280
     0
281
     0
  0
CLASS
  1
SUN
  2
AcDbSun
  3
SCENEOE
 90
     1153
280
     0
281
     0
  0
CLASS
  1
ACDBPLACEHOLDER
  2
AcDbPlaceHolder
  3
ObjectDBX Classes
 90
        0
280
     0
281
     0
  0
CLASS
  1
LAYOUT
  2
AcDbLayout
  3
ObjectDBX Classes
 90
        0
280
     0
281
     0
  0
ENDSEC
  0
SECTION
  2
TABLES
  0
TABLE
  2
VPORT
  5
8
330
0
100
AcDbSymbolTable
 70
     1
  0
VPORT
  5
29
330
8
100
AcDbSymbolTableRecord
100
AcDbViewportTableRecord
  2
*Active
 70
     0
 10
0.0
 20
0.0
 11
1.0
 21
1.0
 12
10000.0
 22
5000.0
 13
0.0
 23
0.0
 14
10.0
 24
10.0
 15
10.0
 25
10.0
 16
0.0
 26
0.0
 36
1.0
 17
0.0
 27
0.0
 37
0.0
 40
10000.0
 41
2.0
 42
50.0
 43
0.0
 44
0.0
 50
0.0
 51
0.0
 71
     0
 72
  2000
 73
     1
 74
     3
 75
     0
 76
     0
 77
     0
 78
     0
281
     0
 65
     1
110
0.0
120
0.0
130
0.0
111
1.0
121
0.0
131
0.0
112
0.0
122
1.0
132
0.0
 79
     0
146
0.0
  0
ENDTAB
  0
TABLE
  2
LTYPE
  5
5
330
0
100
AcDbSymbolTable
 70
     6
  0
LTYPE
  5
14
330
5
100
AcDbSymbolTableRecord
100
AcDbLinetypeTableRecord
  2
ByBlock
 70
     0
  3

 72
    65
 73
     0
 40
0.0
  0
LTYPE
  5
15
330
5
100
AcDbSymbolTableRecord
100
AcDbLinetypeTableRecord
  2
ByLayer
 70
     0
  3

 72
    65
 73
     0
 40
0.0
  0
LTYPE
  5
16
330
5
100
AcDbSymbolTableRecord
100
AcDbLinetypeTableRecord
  2
Continuous
 70
     0
  3
Solid line
 72
    65
 73
     0
 40
0.0
  0
LTYPE
  5
6E
330
5
100
AcDbSymbolTableRecord
100
AcDbLinetypeTableRecord
  2
HIDDEN
 70
     0
  3
Hidden __ __ __ __ __ __ __ __ __ __ __ __ __ __
 72
    65
 73
     2
 40
1.905
 49
1.27
 74
     0
 49
-0.635
 74
     0
  0
LTYPE
  5
6F
330
5
100
AcDbSymbolTableRecord
100
AcDbLinetypeTableRecord
  2
PHANTOM
 70
     0
  3
Phantom ______  __  __  ______  __  __  ______
 72
    65
 73
     6
 40
12.7
 49
6.35
 74
     0
 49
-1.27
 74
     0
 49
1.27
 74
     0
 49
-1.27
 74
     0
 49
1.27
 74
     0
 49
-1.27
 74
     0
  0
LTYPE
  5
70
330
5
100
AcDbSymbolTableRecord
100
AcDbLinetypeTableRecord
  2
CENTER
 70
     0
  3
Center ____ _ ____ _ ____ _ ____ _ ____ _ ____
 72
    65
 73
     4
 40
10.16
 49
6.35
 74
     0
 49
-1.27
 74
     0
 49
1.27
 74
     0
 49
-1.27
 74
     0
  0
LTYPE
  5
71
330
5
100
AcDbSymbolTableRecord
100
AcDbLinetypeTableRecord
  2
CENTERX2
 70
     0
  3
Center (2x) ________  __  ________  __  _____
 72
    65
 73
     4
 40
20.32
 49
12.7
 74
     0
 49
-2.54
 74
     0
 49
2.54
 74
     0
 49
-2.54
 74
     0
  0
LTYPE
  5
72
330
5
100
AcDbSymbolTableRecord
100
AcDbLinetypeTableRecord
  2
DOT2
 70
     0
  3
Dot (.5x) ........................................
 72
    65
 73
     2
 40
0.635
 49
0.0
 74
     0
 49
-0.635
 74
     0
  0
ENDTAB
  0
TABLE
  2
LAYER
  5
2
330
0
100
AcDbSymbolTable
 70
    13
  0
LAYER
  5
10
330
2
100
AcDbSymbolTableRecord
100
AcDbLayerTableRecord
  2
0
 70
     0
 62
     7
  6
Continuous
370
    -3
390
F
  0
LAYER
  5
73
330
2
100
AcDbSymbolTableRecord
100
AcDbLayerTableRecord
  2
FORMAT
 70
     0
 62
     7
  6
Continuous
370
    -3
390
F
  0
LAYER
  5
74
330
2
100
AcDbSymbolTableRecord
100
AcDbLayerTableRecord
  2
OSA
 70
     0
 62
     7
  6
CENTER
370
    -3
390
F
  0
LAYER
  5
75
330
2
100
AcDbSymbolTableRecord
100
AcDbLayerTableRecord
  2
0_35
 70
     0
 62
     7
  6
Continuous
370
    35
390
F
  0
LAYER
  5
76
330
2
100
AcDbSymbolTableRecord
100
AcDbLayerTableRecord
  2
0_5
 70
     0
 62
     7
  6
Continuous
370
    50
390
F
  0
LAYER
  5
77
330
2
100
AcDbSymbolTableRecord
100
AcDbLayerTableRecord
  2
0_25
 70
     0
 62
     7
  6
Continuous
370
    25
390
F
  0
LAYER
  5
78
330
2
100
AcDbSymbolTableRecord
100
AcDbLayerTableRecord
  2
0_18
 70
     0
 62
     7
  6
Continuous
370
    -3
390
F
  0
LAYER
  5
79
330
2
100
AcDbSymbolTableRecord
100
AcDbLayerTableRecord
  2
SLD-0
 70
     0
 62
   179
  6
Continuous
370
    -3
390
F
  0
LAYER
  5
7A
330
2
100
AcDbSymbolTableRecord
100
AcDbLayerTableRecord
  2
KOTY
 70
     0
 62
     7
  6
Continuous
370
    -3
390
F
  0
LAYER
  5
7B
330
2
100
AcDbSymbolTableRecord
100
AcDbLayerTableRecord
  2
SILNA
 70
     0
 62
   179
  6
Continuous
370
    -3
390
F
  0
LAYER
  5
7C
330
2
100
AcDbSymbolTableRecord
100
AcDbLayerTableRecord
  2
0_18_1
 70
     0
 62
   179
  6
Continuous
370
    -3
390
F
  0
LAYER
  5
7D
330
2
100
AcDbSymbolTableRecord
100
AcDbLayerTableRecord
  2
0_35_1
 70
     0
 62
   179
  6
Continuous
370
    35
390
F
  0
LAYER
  5
7E
330
2
100
AcDbSymbolTableRecord
100
AcDbLayerTableRecord
  2
0_5_1
 70
     0
 62
   179
  6
Continuous
370
    50
390
F
  0
ENDTAB
  0
TABLE
  2
STYLE
  5
3
330
0
100
AcDbSymbolTable
 70
     1
  0
STYLE
  5
11
330
3
100
AcDbSymbolTableRecord
100
AcDbTextStyleTableRecord
  2
Standard
 70
     0
 40
0.0
 41
1.0
 50
0.0
 71
     0
 42
2.0
  3
txt
  4

  0
ENDTAB
  0
TABLE
  2
VIEW
  5
6
330
0
100
AcDbSymbolTable
 70
     0
  0
ENDTAB
  0
TABLE
  2
UCS
  5
7
330
0
100
AcDbSymbolTable
 70
     0
  0
ENDTAB
  0
TABLE
  2
APPID
  5
9
330
0
100
AcDbSymbolTable
 70
     1
  0
APPID
  5
12
330
9
100
AcDbSymbolTableRecord
100
AcDbRegAppTableRecord
  2
ACAD
 70
     0
  0
ENDTAB
  0
TABLE
  2
DIMSTYLE
  5
A
330
0
100
AcDbSymbolTable
 70
     1
100
AcDbDimStyleTable
  0
DIMSTYLE
105
27
330
A
100
AcDbSymbolTableRecord
100
AcDbDimStyleTableRecord
  2
ISO-25
 70
     0
 41
2.5
 42
0.625
 43
3.75
 44
1.25
 73
     0
 74
     0
 77
     1
 78
     8
140
2.5
141
2.5
143
0.0393700787
147
0.625
171
     3
172
     1
178
     0
271
     2
272
     2
274
     3
278
    44
283
     0
284
     8
340
11
  0
ENDTAB
  0
TABLE
  2
BLOCK_RECORD
  5
1
330
0
100
AcDbSymbolTable
 70
     1
  0
BLOCK_RECORD
  5
1F
330
1
100
AcDbSymbolTableRecord
100
AcDbBlockTableRecord
  2
*Model_Space
340
22
  0
BLOCK_RECORD
  5
1B
330
1
100
AcDbSymbolTableRecord
100
AcDbBlockTableRecord
  2
*Paper_Space
340
1E
  0
BLOCK_RECORD
  5
23
330
1
100
AcDbSymbolTableRecord
100
AcDbBlockTableRecord
  2
*Paper_Space0
340
26
  0
ENDTAB
  0
ENDSEC
  0
SECTION
  2
BLOCKS
  0
BLOCK
  5
20
330
1F
100
AcDbEntity
  8
0
100
AcDbBlockBegin
  2
*Model_Space
 70
     0
 10
0.0
 20
0.0
 30
0.0
  3
*Model_Space
  1

  0
ENDBLK
  5
21
330
1F
100
AcDbEntity
  8
0
100
AcDbBlockEnd
  0
BLOCK
  5
1C
330
1B
100
AcDbEntity
 67
     1
  8
0
100
AcDbBlockBegin
  2
*Paper_Space
 70
     0
 10
0.0
 20
0.0
 30
0.0
  3
*Paper_Space
  1

  0
ENDBLK
  5
1D
330
1B
100
AcDbEntity
 67
     1
  8
0
100
AcDbBlockEnd
  0
BLOCK
  5
24
330
23
100
AcDbEntity
  8
0
100
AcDbBlockBegin
  2
*Paper_Space0
 70
     0
 10
0.0
 20
0.0
 30
0.0
  3
*Paper_Space0
  1

  0
ENDBLK
  5
25
330
23
100
AcDbEntity
  8
0
100
AcDbBlockEnd
  0
ENDSEC
  0
SECTION
  2
ENTITIES
  0
LINE
  5
7F
330
1F
100
AcDbEntity
  8
0
  6
Continuous
 62
     7
370
    25
100
AcDbLine
 10
6538.0187553361
 20
5272.1523203131
 30
0.0
 11
6588.0187553361
 21
5272.1523203131
 31
0.0
  0
LINE
  5
80
330
1F
100
AcDbEntity
  8
0
  6
Continuous
 62
     7
370
    25
100
AcDbLine
 10
6588.0187553361
 20
5304.1523203131
 30
0.0
 11
6538.0187553361
 21
5304.1523203131
 31
0.0
  0
LINE
  5
81
330
1F
100
AcDbEntity
  8
0
  6
Continuous
 62
     7
370
    25
100
AcDbLine
 10
5960.0187553361
 20
5272.1523203131
 30
0.0
 11
6010.0187553361
 21
5272.1523203131
 31
0.0
  0
LINE
  5
82
330
1F
100
AcDbEntity
  8
0
  6
Continuous
 62
     7
370
    25
100
AcDbLine
 10
6010.0187553361
 20
5304.1523203131
 30
0.0
 11
5960.0187553361
 21
5304.1523203131
 31
0.0
  0
LINE
  5
83
330
1F
100
AcDbEntity
  8
0
  6
Continuous
 62
     7
370
    25
100
AcDbLine
 10
6538.0187553361
 20
5304.1523203131
 30
0.0
 11
6441.7288575183
 21
5304.1523203131
 31
0.0
  0
LINE
  5
84
330
1F
100
AcDbEntity
  8
0
  6
Continuous
 62
     7
370
    25
100
AcDbLine
 10
6106.3086531539
 20
5304.1523203131
 30
0.0
 11
6010.0187553361
 21
5304.1523203131
 31
0.0
  0
LINE
  5
85
330
1F
100
AcDbEntity
  8
0
  6
Continuous
 62
     7
370
    25
100
AcDbLine
 10
6010.0187553361
 20
5272.1523203131
 30
0.0
 11
6074.8897192891
 21
5272.1523203131
 31
0.0
  0
LINE
  5
86
330
1F
100
AcDbEntity
  8
0
  6
Continuous
 62
     7
370
    25
100
AcDbLine
 10
6473.1477913831
 20
5272.1523203131
 30
0.0
 11
6538.0187553361
 21
5272.1523203131
 31
0.0
  0
ARC
  5
87
330
1F
100
AcDbEntity
  8
0
  6
Continuous
 62
     7
370
    25
100
AcDbCircle
 10
6588.0187553361
 20
5288.1523203131
 30
0.0
 40
17.0
100
AcDbArc
 50
250.2500772044
 51
90.0
  0
ARC
  5
88
330
1F
100
AcDbEntity
  8
0
  6
Continuous
 62
     7
370
    25
100
AcDbCircle
 10
6588.0187553361
 20
5288.1523203131
 30
0.0
 40
17.0
100
AcDbArc
 50
90.0
 51
109.7499227956
  0
ARC
  5
89
330
1F
100
AcDbEntity
  8
0
  6
Continuous
 62
     7
370
    25
100
AcDbCircle
 10
6588.0187553361
 20
5288.1523203131
 30
0.0
 40
40.0000000000008
100
AcDbArc
 50
203.5781784782
 51
90.0
  0
ARC
  5
8A
330
1F
100
AcDbEntity
  8
0
  6
Continuous
 62
     7
370
    25
100
AcDbCircle
 10
6588.0187553361
 20
5288.1523203131
 30
0.0
 40
40.0000000000008
100
AcDbArc
 50
90.0
 51
156.4218215218
  0
ARC
  5
8B
330
1F
100
AcDbEntity
  8
0
  6
Continuous
 62
     7
370
    25
100
AcDbCircle
 10
5960.0187553361
 20
5288.1523203131
 30
0.0
 40
17.0
100
AcDbArc
 50
70.2500772044
 51
90.0
  0
ARC
  5
8C
330
1F
100
AcDbEntity
  8
0
  6
Continuous
 62
     7
370
    25
100
AcDbCircle
 10
5960.0187553361
 20
5288.1523203131
 30
0.0
 40
17.0
100
AcDbArc
 50
90.0
 51
289.7499227956
  0
ARC
  5
8D
330
1F
100
AcDbEntity
  8
0
  6
Continuous
 62
     7
370
    25
100
AcDbCircle
 10
5960.0187553361
 20
5288.1523203131
 30
0.0
 40
40.0000000000008
100
AcDbArc
 50
23.5781784782
 51
90.0
  0
ARC
  5
8E
330
1F
100
AcDbEntity
  8
0
  6
Continuous
 62
     7
370
    25
100
AcDbCircle
 10
5960.0187553361
 20
5288.1523203131
 30
0.0
 40
40.0000000000008
100
AcDbArc
 50
90.0
 51
336.4218215218
  0
SPLINE
  5
8F
330
1F
100
AcDbEntity
  8
0
  6
Continuous
 62
     7
370
    25
100
AcDbSpline
210
0.0
220
0.0
230
1.0
 70
     8
 71
     3
 72
    17
 73
    13
 74
     0
 42
0.00000001
 43
0.00000001
 40
0.0
 40
0.0
 40
0.0
 40
0.0
 40
0.0709577098286592
 40
0.1419152517008762
 40
0.2489702802349057
 40
0.3560261112620856
 40
0.4631870198693181
 40
0.5703502255149315
 40
0.6776972968286453
 40
0.7850466674398761
 40
0.8925228652304602
 40
1.0
 40
1.0
 40
1.0
 40
1.0
 10
6131.56680655881
 20
5300.082918074665
 30
0.0
 10
6129.984960805803
 20
5300.030761155936
 30
0.0
 10
6126.821273044009
 20
5299.926447441931
 30
0.0
 10
6121.343877353091
 20
5298.961426721638
 30
0.0
 10
6115.271959824126
 20
5297.01378972869
 30
0.0
 10
6108.890819621733
 20
5293.692422463469
 30
0.0
 10
6103.169386164379
 20
5289.318932541725
 30
0.0
 10
6098.238371597854
 20
5284.048966241829
 30
0.0
 10
6094.265304634152
 20
5278.000773182446
 30
0.0
 10
6091.348342459629
 20
5271.370211760202
 30
0.0
 10
6089.503183879321
 20
5264.327520555431
 30
0.0
 10
6089.267013805673
 20
5259.497792585828
 30
0.0
 10
6089.148928254118
 20
5257.082918074665
 30
0.0
  0
LINE
  5
90
330
1F
100
AcDbEntity
  8
0
  6
Continuous
 62
     7
370
    25
100
AcDbLine
 10
6416.4707041134
 20
5300.0829180747
 30
0.0
 11
6131.5668065588
 21
5300.0829180747
 31
0.0
  0
SPLINE
  5
91
330
1F
100
AcDbEntity
  8
0
  6
Continuous
 62
     7
370
    25
100
AcDbSpline
210
0.0
220
0.0
230
1.0
 70
     8
 71
     3
 72
    17
 73
    13
 74
     0
 42
0.00000001
 43
0.00000001
 40
0.0
 40
0.0
 40
0.0
 40
0.0
 40
0.0703256705661051
 40
0.1406512260168083
 40
0.2481188011182522
 40
0.3555844244172289
 40
0.4630305349735786
 40
0.5704741424381636
 40
0.6779262779777679
 40
0.7853769534065818
 40
0.8926882063842757
 40
1.0
 40
1.0
 40
1.0
 40
1.0
 10
6458.888582418082
 20
5257.082918074665
 30
0.0
 10
6458.83854676701
 20
5258.662203899697
 30
0.0
 10
6458.738475546766
 20
5261.820772964643
 30
0.0
 10
6457.807109422474
 20
5267.325653029169
 30
0.0
 10
6455.912515495621
 20
5273.463639044396
 30
0.0
 10
6452.656754414755
 20
5279.94642207164
 30
0.0
 10
6448.35615837153
 20
5285.771744451205
 30
0.0
 10
6443.161954251765
 20
5290.799963698008
 30
0.0
 10
6437.185522622268
 20
5294.857597130782
 30
0.0
 10
6430.626053693987
 20
5297.837352990119
 30
0.0
 10
6423.650717387009
 20
5299.721134842434
 30
0.0
 10
6418.864045890491
 20
5299.962323461403
 30
0.0
 10
6416.470704113391
 20
5300.082918074665
 30
0.0
  0
LINE
  5
92
330
1F
100
AcDbEntity
  8
0
  6
Continuous
 62
     7
370
    25
100
AcDbLine
 10
6458.8885824181
 20
5152.0829180747
 30
0.0
 11
6458.8885824181
 21
5257.0829180747
 31
0.0
  0
SPLINE
  5
93
330
1F
100
AcDbEntity
  8
0
  6
Continuous
 62
     7
370
    25
100
AcDbSpline
210
0.0
220
0.0
230
1.0
 70
     8
 71
     3
 72
    17
 73
    13
 74
     0
 42
0.00000001
 43
0.00000001
 40
0.0
 40
0.0
 40
0.0
 40
0.0
 40
0.0709577098286591
 40
0.1419152517008755
 40
0.2489702802349051
 40
0.3560261112620854
 40
0.4631870198693181
 40
0.5703502255149313
 40
0.6776972968286453
 40
0.7850466674398761
 40
0.8925228652304603
 40
1.0
 40
1.0
 40
1.0
 40
1.0
 10
6416.470704113391
 20
5109.082918074665
 30
0.0
 10
6418.052549866397
 20
5109.135074993394
 30
0.0
 10
6421.216237628191
 20
5109.239388707399
 30
0.0
 10
6426.69363331911
 20
5110.204409427692
 30
0.0
 10
6432.765550848075
 20
5112.15204642064
 30
0.0
 10
6439.146691050468
 20
5115.473413685861
 30
0.0
 10
6444.868124507821
 20
5119.846903607605
 30
0.0
 10
6449.799139074346
 20
5125.116869907501
 30
0.0
 10
6453.772206038048
 20
5131.165062966884
 30
0.0
 10
6456.689168212572
 20
5137.795624389129
 30
0.0
 10
6458.534326792879
 20
5144.838315593899
 30
0.0
 10
6458.770496866528
 20
5149.668043563502
 30
0.0
 10
6458.888582418082
 20
5152.082918074665
 30
0.0
  0
LINE
  5
94
330
1F
100
AcDbEntity
  8
0
  6
Continuous
 62
     7
370
    25
100
AcDbLine
 10
6131.5668065588
 20
5109.0829180747
 30
0.0
 11
6416.4707041134
 21
5109.0829180747
 31
0.0
  0
SPLINE
  5
95
330
1F
100
AcDbEntity
  8
0
  6
Continuous
 62
     7
370
    25
100
AcDbSpline
210
0.0
220
0.0
230
1.0
 70
     8
 71
     3
 72
    17
 73
    13
 74
     0
 42
0.00000001
 43
0.00000001
 40
0.0
 40
0.0
 40
0.0
 40
0.0
 40
0.0703256705661049
 40
0.1406512260168079
 40
0.2481188011182519
 40
0.3555844244172285
 40
0.4630305349735775
 40
0.5704741424381631
 40
0.6779262779777677
 40
0.7853769534065816
 40
0.8926882063842748
 40
1.0
 40
1.0
 40
1.0
 40
1.0
 10
6089.148928254118
 20
5152.082918074665
 30
0.0
 10
6089.198963905191
 20
5150.503632249633
 30
0.0
 10
6089.299035125435
 20
5147.345063184687
 30
0.0
 10
6090.230401249726
 20
5141.840183120161
 30
0.0
 10
6092.124995176579
 20
5135.702197104934
 30
0.0
 10
6095.380756257446
 20
5129.21941407769
 30
0.0
 10
6099.68135230067
 20
5123.394091698126
 30
0.0
 10
6104.875556420436
 20
5118.365872451322
 30
0.0
 10
6110.851988049933
 20
5114.308239018548
 30
0.0
 10
6117.411456978213
 20
5111.328483159211
 30
0.0
 10
6124.386793285192
 20
5109.444701306896
 30
0.0
 10
6129.17346478171
 20
5109.203512687927
 30
0.0
 10
6131.56680655881
 20
5109.082918074665
 30
0.0
  0
LINE
  5
96
330
1F
100
AcDbEntity
  8
0
  6
Continuous
 62
     7
370
    25
100
AcDbLine
 10
6089.1489282541
 20
5257.0829180747
 30
0.0
 11
6089.1489282541
 21
5152.0829180747
 31
0.0
  0
LWPOLYLINE
  5
97
330
1F
100
AcDbEntity
  8
0
  6
Continuous
 62
     7
370
    25
100
AcDbPolyline
 90
        9
 70
   128
 43
0.0
 10
6416.4707041134
 20
5300.0829180747
 10
6416.486795324
 20
5301.4485503288
 10
6416.5344505797
 20
5302.7617021012
 10
6416.6118385158
 20
5303.9719097058
 10
6416.7159851571
 20
5305.032665543
 10
6416.8428882068
 20
5305.9032053608
 10
6416.9876708518
 20
5306.5500748022
 10
6417.1447691762
 20
5306.9484150375
 10
6417.3081459796
 20
5307.0829180747
  0
SPLINE
  5
98
330
1F
100
AcDbEntity
  8
0
  6
Continuous
 62
     7
370
    25
100
AcDbSpline
210
0.0
220
0.0
230
1.0
 70
     8
 71
     3
 72
    21
 73
    17
 74
     0
 42
0.00000001
 43
0.00000001
 40
0.0
 40
0.0
 40
0.0
 40
0.0
 40
0.0716396129342041
 40
0.1435071014289208
 40
0.2151459375116864
 40
0.2868128592752974
 40
0.3587089437284026
 40
0.4303753138690022
 40
0.5019187990613202
 40
0.5736909241079642
 40
0.6452341830515659
 40
0.7166773265010412
 40
0.7883483966680385
 40
0.8597914861265623
 40
0.9298957440922743
 40
1.0
 40
1.0
 40
1.0
 40
1.0
 10
6417.308145979552
 20
5307.082918074665
 30
0.0
 10
6419.168626548099
 20
5307.020570366448
 30
0.0
 10
6422.895505612932
 20
5306.895676630698
 30
0.0
 10
6428.408877234432
 20
5305.912597167442
 30
0.0
 10
6433.783553163888
 20
5304.364837047496
 30
0.0
 10
6438.943371245344
 20
5302.19064845492
 30
0.0
 10
6443.830405987151
 20
5299.454501307901
 30
0.0
 10
6448.382460216151
 20
5296.187074297878
 30
0.0
 10
6452.528147883816
 20
5292.413970850506
 30
0.0
 10
6456.230134287208
 20
5288.201649433312
 30
0.0
 10
6459.445221150557
 20
5283.600941411812
 30
0.0
 10
6462.113265972913
 20
5278.658782602602
 30
0.0
 10
6464.225361651374
 20
5273.450669934497
 30
0.0
 10
6465.731280010276
 20
5268.070406518478
 30
0.0
 10
6466.664420878692
 20
5262.592379959392
 30
0.0
 10
6466.781109528359
 20
5258.919405351604
 30
0.0
 10
6466.839453852336
 20
5257.082918074665
 30
0.0
  0
LINE
  5
99
330
1F
100
AcDbEntity
  8
0
  6
Continuous
 62
     7
370
    25
100
AcDbLine
 10
6466.8394538523
 20
5257.0829180747
 30
0.0
 11
6458.8885824181
 21
5257.0829180747
 31
0.0
  0
LWPOLYLINE
  5
9A
330
1F
100
AcDbEntity
  8
0
  6
Continuous
 62
     7
370
    25
100
AcDbPolyline
 90
        9
 70
   128
 43
0.0
 10
6130.7293646926
 20
5102.0829180747
 10
6130.892741496
 20
5102.2174211118
 10
6131.0498398204
 20
5102.6157613471
 10
6131.1946224654
 20
5103.2626307885
 10
6131.3215255151
 20
5104.1331706064
 10
6131.4256721564
 20
5105.1939264435
 10
6131.5030600925
 20
5106.4041340481
 10
6131.5507153482
 20
5107.7172858206
 10
6131.5668065588
 20
5109.0829180747
  0
SPLINE
  5
9B
330
1F
100
AcDbEntity
  8
0
  6
Continuous
 62
     7
370
    25
100
AcDbSpline
210
0.0
220
0.0
230
1.0
 70
     8
 71
     3
 72
    21
 73
    17
 74
     0
 42
0.00000001
 43
0.00000001
 40
0.0
 40
0.0
 40
0.0
 40
0.0
 40
0.0716396129342046
 40
0.1435071014289211
 40
0.2151459375116868
 40
0.2868128592752979
 40
0.3587089437284031
 40
0.4303753138690027
 40
0.5019187990613213
 40
0.5736909241079643
 40
0.645234183051566
 40
0.7166773265010418
 40
0.7883483966680388
 40
0.8597914861265629
 40
0.9298957440922743
 40
1.0
 40
1.0
 40
1.0
 40
1.0
 10
6130.729364692648
 20
5102.082918074665
 30
0.0
 10
6128.868884124101
 20
5102.145265782882
 30
0.0
 10
6125.142005059269
 20
5102.270159518632
 30
0.0
 10
6119.628633437768
 20
5103.253238981889
 30
0.0
 10
6114.253957508312
 20
5104.800999101834
 30
0.0
 10
6109.094139426857
 20
5106.975187694409
 30
0.0
 10
6104.20710468505
 20
5109.711334841429
 30
0.0
 10
6099.655050456049
 20
5112.978761851452
 30
0.0
 10
6095.509362788384
 20
5116.751865298824
 30
0.0
 10
6091.807376384992
 20
5120.964186716018
 30
0.0
 10
6088.592289521644
 20
5125.564894737518
 30
0.0
 10
6085.924244699288
 20
5130.507053546728
 30
0.0
 10
6083.812149020826
 20
5135.715166214834
 30
0.0
 10
6082.306230661924
 20
5141.095429630852
 30
0.0
 10
6081.373089793508
 20
5146.573456189938
 30
0.0
 10
6081.256401143842
 20
5150.246430797726
 30
0.0
 10
6081.198056819864
 20
5152.082918074665
 30
0.0
  0
LINE
  5
9C
330
1F
100
AcDbEntity
  8
0
  6
Continuous
 62
     7
370
    25
100
AcDbLine
 10
6089.1489282541
 20
5152.0829180747
 30
0.0
 11
6081.1980568199
 21
5152.0829180747
 31
0.0
  0
LINE
  5
9D
330
1F
100
AcDbEntity
  8
0
  6
Continuous
 62
     7
370
    25
100
AcDbLine
 10
6089.1489282541
 20
5257.0829180747
 30
0.0
 11
6081.1980568199
 21
5257.0829180747
 31
0.0
  0
SPLINE
  5
9E
330
1F
100
AcDbEntity
  8
0
  6
Continuous
 62
     7
370
    25
100
AcDbSpline
210
0.0
220
0.0
230
1.0
 70
     8
 71
     3
 72
    21
 73
    17
 74
     0
 42
0.00000001
 43
0.00000001
 40
0.0
 40
0.0
 40
0.0
 40
0.0
 40
0.0714047540245817
 40
0.1430371260766712
 40
0.2144418941894339
 40
0.2858419969356053
 40
0.3574696526916875
 40
0.4288698496920471
 40
0.5002687343987061
 40
0.5718950157689354
 40
0.6432942230069671
 40
0.7147276233286255
 40
0.7863882704790841
 40
0.8578223239859502
 40
0.9289110535594037
 40
1.0
 40
1.0
 40
1.0
 40
1.0
 10
6081.198056819864
 20
5257.082918074665
 30
0.0
 10
6081.259493747629
 20
5258.953521862771
 30
0.0
 10
6081.382563446592
 20
5262.700692391315
 30
0.0
 10
6082.350961373882
 20
5268.247161102618
 30
0.0
 10
6083.874922383056
 20
5273.65540403349
 30
0.0
 10
6086.014615475659
 20
5278.849247901016
 30
0.0
 10
6088.706450985368
 20
5283.770370433655
 30
0.0
 10
6091.922554235441
 20
5288.359638601179
 30
0.0
 10
6095.639004028284
 20
5292.544684694642
 30
0.0
 10
6099.791717986145
 20
5296.286735607536
 30
0.0
 10
6104.331709127351
 20
5299.541837255419
 30
0.0
 10
6109.21407621755
 20
5302.24820577361
 30
0.0
 10
6114.365179580513
 20
5304.395488863992
 30
0.0
 10
6119.7143902818
 20
5305.938310263377
 30
0.0
 10
6125.190892646829
 20
5306.90145132845
 30
0.0
 10
6128.883205466716
 20
5307.02242909775
 30
0.0
 10
6130.729364692648
 20
5307.082918074665
 30
0.0
  0
LWPOLYLINE
  5
9F
330
1F
100
AcDbEntity
  8
0
  6
Continuous
 62
     7
370
    25
100
AcDbPolyline
 90
        9
 70
   128
 43
0.0
 10
6131.5668065588
 20
5300.0829180747
 10
6131.5507153482
 20
5301.4485503288
 10
6131.5030600925
 20
5302.7617021012
 10
6131.4256721564
 20
5303.9719097058
 10
6131.3215255151
 20
5305.032665543
 10
6131.1946224654
 20
5305.9032053608
 10
6131.0498398204
 20
5306.5500748022
 10
6130.892741496
 20
5306.9484150375
 10
6130.7293646926
 20
5307.0829180747
  0
SPLINE
  5
A0
330
1F
100
AcDbEntity
  8
0
  6
Continuous
 62
     7
370
    25
100
AcDbSpline
210
0.0
220
0.0
230
1.0
 70
     8
 71
     3
 72
    21
 73
    17
 74
     0
 42
0.00000001
 43
0.00000001
 40
0.0
 40
0.0
 40
0.0
 40
0.0
 40
0.0714047540245814
 40
0.1430371260766712
 40
0.2144418941894339
 40
0.285841996935605
 40
0.3574696526916876
 40
0.4288698496920474
 40
0.5002687343987059
 40
0.5718950157689353
 40
0.6432942230069671
 40
0.7147276233286255
 40
0.7863882704790838
 40
0.8578223239859504
 40
0.928911053559404
 40
1.0
 40
1.0
 40
1.0
 40
1.0
 10
6466.839453852336
 20
5152.082918074665
 30
0.0
 10
6466.778016924572
 20
5150.212314286559
 30
0.0
 10
6466.654947225608
 20
5146.465143758016
 30
0.0
 10
6465.686549298319
 20
5140.918675046712
 30
0.0
 10
6464.162588289144
 20
5135.510432115839
 30
0.0
 10
6462.022895196542
 20
5130.316588248314
 30
0.0
 10
6459.331059686832
 20
5125.395465715675
 30
0.0
 10
6456.11495643676
 20
5120.806197548151
 30
0.0
 10
6452.398506643916
 20
5116.621151454689
 30
0.0
 10
6448.245792686055
 20
5112.879100541794
 30
0.0
 10
6443.705801544849
 20
5109.623998893911
 30
0.0
 10
6438.82343445465
 20
5106.91763037572
 30
0.0
 10
6433.672331091688
 20
5104.770347285338
 30
0.0
 10
6428.323120390401
 20
5103.227525885953
 30
0.0
 10
6422.846618025372
 20
5102.26438482088
 30
0.0
 10
6419.154305205484
 20
5102.143407051581
 30
0.0
 10
6417.308145979552
 20
5102.082918074665
 30
0.0
  0
LWPOLYLINE
  5
A1
330
1F
100
AcDbEntity
  8
0
  6
Continuous
 62
     7
370
    25
100
AcDbPolyline
 90
        9
 70
   128
 43
0.0
 10
6417.3081459796
 20
5102.0829180747
 10
6417.1447691762
 20
5102.2174211118
 10
6416.9876708518
 20
5102.6157613471
 10
6416.8428882068
 20
5103.2626307885
 10
6416.7159851571
 20
5104.1331706064
 10
6416.6118385158
 20
5105.1939264435
 10
6416.5344505797
 20
5106.4041340481
 10
6416.486795324
 20
5107.7172858206
 10
6416.4707041134
 20
5109.0829180747
  0
LINE
  5
A2
330
1F
100
AcDbEntity
  8
0
  6
Continuous
 62
     7
370
    25
100
AcDbLine
 10
6466.8394538523
 20
5152.0829180747
 30
0.0
 11
6458.8885824181
 21
5152.0829180747
 31
0.0
  0
LINE
  5
A3
330
1F
100
AcDbEntity
  8
0
  6
Continuous
 62
     7
370
    25
100
AcDbLine
 10
6466.8394538523
 20
5257.0829180747
 30
0.0
 11
6466.8394538523
 21
5152.0829180747
 31
0.0
  0
LINE
  5
A4
330
1F
100
AcDbEntity
  8
0
  6
Continuous
 62
     7
370
    25
100
AcDbLine
 10
6081.1980568199
 20
5152.0829180747
 30
0.0
 11
6081.1980568199
 21
5257.0829180747
 31
0.0
  0
ELLIPSE
  5
A5
330
1F
100
AcDbEntity
  8
0
  6
Continuous
 62
     7
370
    25
100
AcDbEllipse
 10
6424.5285602002
 20
5257.0829180747
 30
0.0
 11
50.99019513592793
 21
0.0
 31
0.0
210
0.0
220
0.0
230
1.0
 40
0.9805806757
 41
0.0
 42
1.570796326794897
  0
LINE
  5
A6
330
1F
100
AcDbEntity
  8
0
  6
Continuous
 62
     7
370
    25
100
AcDbLine
 10
6475.5187553361
 20
5257.0829180747
 30
0.0
 11
6466.8394538523
 21
5257.0829180747
 31
0.0
  0
LINE
  5
A7
330
1F
100
AcDbEntity
  8
0
  6
Continuous
 62
     7
370
    25
100
AcDbLine
 10
6417.3081459796
 20
5307.0829180747
 30
0.0
 11
6424.5285602002
 21
5307.0829180747
 31
0.0
  0
ELLIPSE
  5
A8
330
1F
100
AcDbEntity
  8
0
  6
Continuous
 62
     7
370
    25
100
AcDbEllipse
 10
6123.508950472
 20
5152.0829180747
 30
0.0
 11
-50.99019513592793
 21
0.0
 31
0.0
210
0.0
220
0.0
230
1.0
 40
0.9805806757
 41
0.0
 42
1.570796326794897
  0
LINE
  5
A9
330
1F
100
AcDbEntity
  8
0
  6
Continuous
 62
     7
370
    25
100
AcDbLine
 10
6072.5187553361
 20
5152.0829180747
 30
0.0
 11
6081.1980568199
 21
5152.0829180747
 31
0.0
  0
LINE
  5
AA
330
1F
100
AcDbEntity
  8
0
  6
Continuous
 62
     7
370
    25
100
AcDbLine
 10
6130.7293646926
 20
5102.0829180747
 30
0.0
 11
6123.508950472
 21
5102.0829180747
 31
0.0
  0
ELLIPSE
  5
AB
330
1F
100
AcDbEntity
  8
0
  6
Continuous
 62
     7
370
    25
100
AcDbEllipse
 10
6424.5285602002
 20
5152.0829180747
 30
0.0
 11
-50.99019513592793
 21
0.0
 31
0.0
210
0.0
220
0.0
230
1.0
 40
0.9805806757
 41
1.570796326794897
 42
3.141592653589793
  0
LINE
  5
AC
330
1F
100
AcDbEntity
  8
0
  6
Continuous
 62
     7
370
    25
100
AcDbLine
 10
6424.5285602002
 20
5102.0829180747
 30
0.0
 11
6417.3081459796
 21
5102.0829180747
 31
0.0
  0
LINE
  5
AD
330
1F
100
AcDbEntity
  8
0
  6
Continuous
 62
     7
370
    25
100
AcDbLine
 10
6466.8394538523
 20
5152.0829180747
 30
0.0
 11
6475.5187553361
 21
5152.0829180747
 31
0.0
  0
ELLIPSE
  5
AE
330
1F
100
AcDbEntity
  8
0
  6
Continuous
 62
     7
370
    25
100
AcDbEllipse
 10
6123.508950472
 20
5257.0829180747
 30
0.0
 11
50.99019513592793
 21
0.0
 31
0.0
210
0.0
220
0.0
230
1.0
 40
0.9805806757
 41
1.570796326794897
 42
3.141592653589793
  0
LINE
  5
AF
330
1F
100
AcDbEntity
  8
0
  6
Continuous
 62
     7
370
    25
100
AcDbLine
 10
6123.508950472
 20
5307.0829180747
 30
0.0
 11
6130.7293646926
 21
5307.0829180747
 31
0.0
  0
LINE
  5
B0
330
1F
100
AcDbEntity
  8
0
  6
Continuous
 62
     7
370
    25
100
AcDbLine
 10
6081.1980568199
 20
5257.0829180747
 30
0.0
 11
6072.5187553361
 21
5257.0829180747
 31
0.0
  0
LINE
  5
B1
330
1F
100
AcDbEntity
  8
0
  6
Continuous
 62
     7
370
    25
100
AcDbLine
 10
6072.5187553361
 20
5257.0829180747
 30
0.0
 11
6072.5187553361
 21
5152.0829180747
 31
0.0
  0
LINE
  5
B2
330
1F
100
AcDbEntity
  8
0
  6
Continuous
 62
     7
370
    25
100
AcDbLine
 10
6475.5187553361
 20
5257.0829180747
 30
0.0
 11
6475.5187553361
 21
5152.0829180747
 31
0.0
  0
LINE
  5
B3
330
1F
100
AcDbEntity
  8
0
  6
Continuous
 62
     7
370
    25
100
AcDbLine
 10
6417.3081459796
 20
5102.0829180747
 30
0.0
 11
6130.7293646926
 21
5102.0829180747
 31
0.0
  0
LINE
  5
B4
330
1F
100
AcDbEntity
  8
0
  6
Continuous
 62
     7
370
    25
100
AcDbLine
 10
6130.7293646926
 20
5307.0829180747
 30
0.0
 11
6417.3081459796
 21
5307.0829180747
 31
0.0
  0
ARC
  5
B5
330
1F
100
AcDbEntity
  8
0
  6
Continuous
 62
     7
370
    25
100
AcDbCircle
 10
6588.0187553361
 20
5288.1523203131
 30
0.0
 40
16.0
100
AcDbArc
 50
0.0
 51
90.0
  0
ARC
  5
B6
330
1F
100
AcDbEntity
  8
0
  6
Continuous
 62
     7
370
    25
100
AcDbCircle
 10
6588.0187553361
 20
5288.1523203131
 30
0.0
 40
16.0
100
AcDbArc
 50
270.0
 51
0.0
  0
ARC
  5
B7
330
1F
100
AcDbEntity
  8
0
  6
Continuous
 62
     7
370
    25
100
AcDbCircle
 10
5960.0187553361
 20
5288.1523203131
 30
0.0
 40
16.0
100
AcDbArc
 50
90.0
 51
180.0
  0
ARC
  5
B8
330
1F
100
AcDbEntity
  8
0
  6
Continuous
 62
     7
370
    25
100
AcDbCircle
 10
5960.0187553361
 20
5288.1523203131
 30
0.0
 40
16.0
100
AcDbArc
 50
180.0
 51
270.0
  0
ARC
  5
B9
330
1F
100
AcDbEntity
  8
0
  6
Continuous
 62
     8
370
    25
100
AcDbCircle
 10
6588.0187553361
 20
5288.1523203131
 30
0.0
 40
21.93916508550647
100
AcDbArc
 50
226.826852919
 51
270.0
  0
ARC
  5
BA
330
1F
100
AcDbEntity
  8
0
  6
Continuous
 62
     8
370
    25
100
AcDbCircle
 10
6588.0187553361
 20
5288.1523203131
 30
0.0
 40
21.93916508550647
100
AcDbArc
 50
270.0
 51
133.173147081
  0
ARC
  5
BB
330
1F
100
AcDbEntity
  8
0
  6
Continuous
 62
     8
370
    25
100
AcDbCircle
 10
6588.0187553361
 20
5288.1523203131
 30
0.0
 40
20.5317972457533
100
AcDbArc
 50
90.0
 51
128.8053843461
  0
ARC
  5
BC
330
1F
100
AcDbEntity
  8
0
  6
Continuous
 62
     8
370
    25
100
AcDbCircle
 10
6588.0187553361
 20
5288.1523203131
 30
0.0
 40
20.5317972457533
100
AcDbArc
 50
231.1946156539
 51
90.0
  0
ARC
  5
BD
330
1F
100
AcDbEntity
  8
0
  6
Continuous
 62
     8
370
    25
100
AcDbCircle
 10
6588.0187553361
 20
5288.1523203131
 30
0.0
 40
38.20368391987722
100
AcDbArc
 50
204.7593404343
 51
90.0
  0
ARC
  5
BE
330
1F
100
AcDbEntity
  8
0
  6
Continuous
 62
     8
370
    25
100
AcDbCircle
 10
6588.0187553361
 20
5288.1523203131
 30
0.0
 40
38.20368391987722
100
AcDbArc
 50
90.0
 51
155.2406595657
  0
ARC
  5
BF
330
1F
100
AcDbEntity
  8
0
  6
Continuous
 62
     8
370
    25
100
AcDbCircle
 10
5960.0187553361
 20
5288.1523203131
 30
0.0
 40
21.93916508550647
100
AcDbArc
 50
46.826852919
 51
270.0
  0
ARC
  5
C0
330
1F
100
AcDbEntity
  8
0
  6
Continuous
 62
     8
370
    25
100
AcDbCircle
 10
5960.0187553361
 20
5288.1523203131
 30
0.0
 40
21.93916508550647
100
AcDbArc
 50
270.0
 51
313.173147081
  0
ARC
  5
C1
330
1F
100
AcDbEntity
  8
0
  6
Continuous
 62
     8
370
    25
100
AcDbCircle
 10
5960.0187553361
 20
5288.1523203131
 30
0.0
 40
20.5317972457533
100
AcDbArc
 50
90.0
 51
308.8053843461
  0
ARC
  5
C2
330
1F
100
AcDbEntity
  8
0
  6
Continuous
 62
     8
370
    25
100
AcDbCircle
 10
5960.0187553361
 20
5288.1523203131
 30
0.0
 40
20.5317972457533
100
AcDbArc
 50
51.1946156539
 51
90.0
  0
ARC
  5
C3
330
1F
100
AcDbEntity
  8
0
  6
Continuous
 62
     8
370
    25
100
AcDbCircle
 10
5960.0187553361
 20
5288.1523203131
 30
0.0
 40
38.20368391987722
100
AcDbArc
 50
24.7593404343
 51
90.0
  0
ARC
  5
C4
330
1F
100
AcDbEntity
  8
0
  6
Continuous
 62
     8
370
    25
100
AcDbCircle
 10
5960.0187553361
 20
5288.1523203131
 30
0.0
 40
38.20368391987722
100
AcDbArc
 50
90.0
 51
335.2406595657
  0
LINE
  5
C5
330
1F
100
AcDbEntity
  8
0
  6
Continuous
 62
     8
370
    25
100
AcDbLine
 10
6538.0187553361
 20
5288.1523203131
 30
0.0
 11
6538.0187553361
 21
5304.1523203131
 31
0.0
  0
LINE
  5
C6
330
1F
100
AcDbEntity
  8
0
  6
Continuous
 62
     8
370
    25
100
AcDbLine
 10
6538.0187553361
 20
5272.1523203131
 30
0.0
 11
6538.0187553361
 21
5288.1523203131
 31
0.0
  0
LINE
  5
C7
330
1F
100
AcDbEntity
  8
0
  6
Continuous
 62
     8
370
    25
100
AcDbLine
 10
6010.0187553361
 20
5288.1523203131
 30
0.0
 11
6010.0187553361
 21
5304.1523203131
 31
0.0
  0
LINE
  5
C8
330
1F
100
AcDbEntity
  8
0
  6
Continuous
 62
     8
370
    25
100
AcDbLine
 10
6010.0187553361
 20
5272.1523203131
 30
0.0
 11
6010.0187553361
 21
5288.1523203131
 31
0.0
  0
LINE
  5
C9
330
1F
100
AcDbEntity
  8
0
  6
Continuous
 62
     7
370
    25
100
AcDbLine
 10
6816.7765318948
 20
5248.1523203131
 30
0.0
 11
6826.9045288242
 21
5248.1523203131
 31
0.0
  0
LINE
  5
CA
330
1F
100
AcDbEntity
  8
0
  6
Continuous
 62
     7
370
    25
100
AcDbLine
 10
6826.9045288242
 20
5328.1523203131
 30
0.0
 11
6816.7765318948
 21
5328.1523203131
 31
0.0
  0
ARC
  5
CB
330
1F
100
AcDbEntity
  8
0
  6
Continuous
 62
     7
370
    25
100
AcDbCircle
 10
6826.9045288242
 20
5250.6523203131
 30
0.0
 40
2.500000000000939
100
AcDbArc
 50
270.0
 51
343.6518284527
  0
ARC
  5
CC
330
1F
100
AcDbEntity
  8
0
  6
Continuous
 62
     7
370
    25
100
AcDbCircle
 10
6826.9045288242
 20
5325.6523203131
 30
0.0
 40
2.500000000000939
100
AcDbArc
 50
16.3481715473
 51
90.0
  0
LINE
  5
CD
330
1F
100
AcDbEntity
  8
0
  6
Continuous
 62
     7
370
    25
100
AcDbLine
 10
6829.3034512783
 20
5249.9486363932
 30
0.0
 11
6834.0743768031
 21
5266.2131552276
 31
0.0
  0
LINE
  5
CE
330
1F
100
AcDbEntity
  8
0
  6
Continuous
 62
     7
370
    25
100
AcDbLine
 10
6834.0743768031
 20
5310.0914853986
 30
0.0
 11
6829.3034512783
 21
5326.356004233
 31
0.0
  0
ARC
  5
CF
330
1F
100
AcDbEntity
  8
0
  6
Continuous
 62
     7
370
    25
100
AcDbCircle
 10
6829.2765318948
 20
5267.6205230674
 30
0.0
 40
5.000000000000387
100
AcDbArc
 50
343.6518284527
 51
0.0
  0
ARC
  5
D0
330
1F
100
AcDbEntity
  8
0
  6
Continuous
 62
     7
370
    25
100
AcDbCircle
 10
6829.2765318948
 20
5308.6841175589
 30
0.0
 40
5.000000000000387
100
AcDbArc
 50
0.0
 51
16.3481715473
  0
SPLINE
  5
D1
330
1F
100
AcDbEntity
  8
0
  6
Continuous
 62
     7
370
    25
100
AcDbSpline
210
0.0
220
0.0
230
1.0
 70
     8
 71
     3
 72
    30
 73
    26
 74
     0
 42
0.00000001
 43
0.00000001
 40
0.0
 40
0.0
 40
0.0
 40
0.0
 40
0.0198651710346731
 40
0.044408348888315
 40
0.0683224544834613
 40
0.0922348168836208
 40
0.1169043494752042
 40
0.1434454205646889
 40
0.173611081436695
 40
0.2103905138510441
 40
0.2603280107055363
 40
0.3271447299916698
 40
0.3822484814143728
 40
0.4404249350316372
 40
0.4955448047934867
 40
0.5486980928306803
 40
0.5993569697144645
 40
0.6508188244328901
 40
0.7025224378603966
 40
0.7545747282817756
 40
0.8069686132608307
 40
0.8596197949147114
 40
0.9123940342890465
 40
0.9650820593765322
 40
1.0
 40
1.0
 40
1.0
 40
1.0
 10
6963.388818128896
 20
5102.115009248537
 30
0.0
 10
6963.791393073029
 20
5102.122838603469
 30
0.0
 10
6964.691344477504
 20
5102.140341031454
 30
0.0
 10
6966.006592651665
 20
5102.511953557176
 30
0.0
 10
6967.253900474753
 20
5103.091279245017
 30
0.0
 10
6968.311210080772
 20
5103.824869282682
 30
0.0
 10
6969.194377663507
 20
5104.651259771592
 30
0.0
 10
6969.939393365632
 20
5105.555815691167
 30
0.0
 10
6970.595089380991
 20
5106.563266490613
 30
0.0
 10
6971.237403060528
 20
5107.809119462428
 30
0.0
 10
6971.896378013476
 20
5109.446946448596
 30
0.0
 10
6972.516627596845
 20
5111.43905986528
 30
0.0
 10
6973.103907890984
 20
5113.789598434032
 30
0.0
 10
6973.613088130284
 20
5116.241697181625
 30
0.0
 10
6974.080698572483
 20
5118.923926894344
 30
0.0
 10
6974.494900789409
 20
5121.725408967401
 30
0.0
 10
6974.860554060583
 20
5124.679696202883
 30
0.0
 10
6975.184131039284
 20
5127.789314393848
 30
0.0
 10
6975.470531367897
 20
5131.092384796112
 30
0.0
 10
6975.71710499429
 20
5134.557523147081
 30
0.0
 10
6975.921803791852
 20
5138.163194975875
 30
0.0
 10
6976.083045196037
 20
5141.881295305021
 30
0.0
 10
6976.196072573521
 20
5145.678106238676
 30
0.0
 10
6976.260295104589
 20
5149.089776151488
 30
0.0
 10
6976.26489118656
 20
5151.229550364755
 30
0.0
 10
6976.26672309054
 20
5152.082420466922
 30
0.0
  0
SPLINE
  5
D2
330
1F
100
AcDbEntity
  8
0
  6
Continuous
 62
     7
370
    25
100
AcDbSpline
210
0.0
220
0.0
230
1.0
 70
     8
 71
     3
 72
    30
 73
    26
 74
     0
 42
0.00000001
 43
0.00000001
 40
0.0
 40
0.0
 40
0.0
 40
0.0
 40
0.0153794726094274
 40
0.067182256768116
 40
0.1189764653818425
 40
0.1707268491384793
 40
0.2219634450841751
 40
0.2735640597964968
 40
0.3257377316404416
 40
0.3782715262355933
 40
0.4309649766880717
 40
0.4836543659991868
 40
0.535658134334167
 40
0.5875390417109503
 40
0.641330845404003
 40
0.6978408162283853
 40
0.7589155223239739
 40
0.8121625839760996
 40
0.8473294895938174
 40
0.8779918427692829
 40
0.9054649940175538
 40
0.9312074444610255
 40
0.956152301015502
 40
0.9807674985328597
 40
1.0
 40
1.0
 40
1.0
 40
1.0
 10
6976.293238136531
 20
5257.08247818881
 30
0.0
 10
6976.294775852215
 20
5257.456725384221
 30
0.0
 10
6976.301493066293
 20
5259.09155200119
 30
0.0
 10
6976.263092544498
 20
5261.984563718024
 30
0.0
 10
6976.176818479304
 20
5265.726970620392
 30
0.0
 10
6976.037040247924
 20
5269.395354753063
 30
0.0
 10
6975.850226503442
 20
5272.970995803366
 30
0.0
 10
6975.618231519979
 20
5276.446645614387
 30
0.0
 10
6975.342183731522
 20
5279.818039183529
 30
0.0
 10
6975.024087543263
 20
5283.056482161216
 30
0.0
 10
6974.667057013041
 20
5286.125512077208
 30
0.0
 10
6974.274345943778
 20
5288.986584011945
 30
0.0
 10
6973.850954754821
 20
5291.605279194014
 30
0.0
 10
6973.394095376136
 20
5294.008545764456
 30
0.0
 10
6972.890726629424
 20
5296.240938181792
 30
0.0
 10
6972.314131980925
 20
5298.35361593246
 30
0.0
 10
6971.667675196448
 20
5300.240402332264
 30
0.0
 10
6970.97861105848
 20
5301.7857410379
 30
0.0
 10
6970.25738053608
 20
5303.025460075735
 30
0.0
 10
6969.515605448584
 20
5304.027743693805
 30
0.0
 10
6968.637035311052
 20
5304.940187123211
 30
0.0
 10
6967.591143818373
 20
5305.748939046726
 30
0.0
 10
6966.367185578227
 20
5306.396036319686
 30
0.0
 10
6965.095497441339
 20
5306.82974968681
 30
0.0
 10
6964.221330226486
 20
5306.903684880825
 30
0.0
 10
6963.837902529445
 20
5306.936114375651
 30
0.0
  0
LINE
  5
D3
330
1F
100
AcDbEntity
  8
0
  6
Continuous
 62
     7
370
    25
100
AcDbLine
 10
6976.3002263677
 20
5152.0829180747
 30
0.0
 11
6976.3002263677
 21
5257.0829180747
 31
0.0
  0
LINE
  5
D4
330
1F
100
AcDbEntity
  8
0
  6
Continuous
 62
     7
370
    25
100
AcDbLine
 10
6825.7765318948
 20
5105.0829180747
 30
0.0
 11
6828.2765318948
 21
5105.0829180747
 31
0.0
  0
LINE
  5
D5
330
1F
100
AcDbEntity
  8
0
  6
Continuous
 62
     7
370
    25
100
AcDbLine
 10
6828.2765318948
 20
5137.0829180747
 30
0.0
 11
6825.7765318948
 21
5137.0829180747
 31
0.0
  0
ARC
  5
D6
330
1F
100
AcDbEntity
  8
0
  6
Continuous
 62
     7
370
    25
100
AcDbCircle
 10
6825.7765318948
 20
5135.5829180747
 30
0.0
 40
1.5
100
AcDbArc
 50
90.0
 51
180.0
  0
ARC
  5
D7
330
1F
100
AcDbEntity
  8
0
  6
Continuous
 62
     7
370
    25
100
AcDbCircle
 10
6825.7765318948
 20
5106.5829180747
 30
0.0
 40
1.5
100
AcDbArc
 50
180.0
 51
270.0
  0
LINE
  5
D8
330
1F
100
AcDbEntity
  8
0
  6
Continuous
 62
     7
370
    25
100
AcDbLine
 10
6829.2765318948
 20
5105.1523203131
 30
0.0
 11
6924.2765318948
 21
5105.1523203131
 31
0.0
  0
LINE
  5
D9
330
1F
100
AcDbEntity
  8
0
  6
Continuous
 62
     7
370
    25
100
AcDbLine
 10
6924.2765318948
 20
5137.0135158362
 30
0.0
 11
6829.2765318948
 21
5137.0135158362
 31
0.0
  0
LINE
  5
DA
330
1F
100
AcDbEntity
  8
0
  6
Continuous
 62
     7
370
    25
100
AcDbLine
 10
6828.2765318948
 20
5107.0829180747
 30
0.0
 11
6829.2765318948
 21
5107.0829180747
 31
0.0
  0
LINE
  5
DB
330
1F
100
AcDbEntity
  8
0
  6
Continuous
 62
     7
370
    25
100
AcDbLine
 10
6829.2765318948
 20
5135.0829180747
 30
0.0
 11
6828.2765318948
 21
5135.0829180747
 31
0.0
  0
LINE
  5
DC
330
1F
100
AcDbEntity
  8
0
  6
Continuous
 62
     7
370
    25
100
AcDbLine
 10
6829.2765318948
 20
5105.0829180747
 30
0.0
 11
6924.2765318948
 21
5105.0829180747
 31
0.0
  0
LINE
  5
DD
330
1F
100
AcDbEntity
  8
0
  6
Continuous
 62
     7
370
    25
100
AcDbLine
 10
6924.2765318948
 20
5137.0829180747
 30
0.0
 11
6829.2765318948
 21
5137.0829180747
 31
0.0
  0
SPLINE
  5
DE
330
1F
100
AcDbEntity
  8
0
  6
Continuous
 62
     7
370
    25
100
AcDbSpline
210
0.0
220
0.0
230
1.0
 70
     8
 71
     3
 72
    18
 73
    14
 74
     0
 42
0.00000001
 43
0.00000001
 40
0.0
 40
0.0
 40
0.0
 40
0.0
 40
0.0467373436308516
 40
0.2090048829759805
 40
0.3857042353098319
 40
0.5025963600965094
 40
0.5963785210314295
 40
0.6771375894921142
 40
0.750959248186707
 40
0.8212550572056813
 40
0.8900374579662756
 40
0.9582346535855598
 40
1.0
 40
1.0
 40
1.0
 40
1.0
 10
6972.879116612416
 20
5296.214043843052
 30
0.0
 10
6972.826366956361
 20
5296.44156864373
 30
0.0
 10
6972.59047559339
 20
5297.459037559279
 30
0.0
 10
6972.104715697332
 20
5299.079092475035
 30
0.0
 10
6971.463080671726
 20
5300.85883535014
 30
0.0
 10
6970.755687729982
 20
5302.323313931349
 30
0.0
 10
6970.066766771134
 20
5303.43726539721
 30
0.0
 10
6969.286931055512
 20
5304.419066507755
 30
0.0
 10
6968.361160801238
 20
5305.304307166304
 30
0.0
 10
6967.258048078153
 20
5306.076464062068
 30
0.0
 10
6965.980141293311
 20
5306.660812199453
 30
0.0
 10
6964.75311274218
 20
5307.014204268965
 30
0.0
 10
6963.959100129708
 20
5307.026028691236
 30
0.0
 10
6963.657522781603
 20
5307.030519775955
 30
0.0
  0
LINE
  5
DF
330
1F
100
AcDbEntity
  8
0
  6
Continuous
 62
     7
370
    25
100
AcDbLine
 10
6858.2765318948
 20
5304.1523203131
 30
0.0
 11
6834.2765318948
 21
5304.1523203131
 31
0.0
  0
LINE
  5
E0
330
1F
100
AcDbEntity
  8
0
  6
Continuous
 62
     7
370
    25
100
AcDbLine
 10
6834.2765318948
 20
5272.1523203131
 30
0.0
 11
6858.2765318948
 21
5272.1523203131
 31
0.0
  0
LINE
  5
E1
330
1F
100
AcDbEntity
  8
0
  6
Continuous
 62
     7
370
    25
100
AcDbLine
 10
6858.2765318948
 20
5272.1523203131
 30
0.0
 11
6908.2765318948
 21
5272.1523203131
 31
0.0
  0
LINE
  5
E2
330
1F
100
AcDbEntity
  8
0
  6
Continuous
 62
     7
370
    25
100
AcDbLine
 10
6908.2765318948
 20
5304.1523203131
 30
0.0
 11
6858.2765318948
 21
5304.1523203131
 31
0.0
  0
LINE
  5
E3
330
1F
100
AcDbEntity
  8
0
  6
Continuous
 62
     7
370
    25
100
AcDbLine
 10
6816.7765318948
 20
5248.1523203131
 30
0.0
 11
6816.7765318948
 21
5328.1523203131
 31
0.0
  0
LINE
  5
E4
330
1F
100
AcDbEntity
  8
0
  6
Continuous
 62
     7
370
    25
100
AcDbLine
 10
6834.2765318948
 20
5308.6841175589
 30
0.0
 11
6834.2765318948
 21
5267.6205230773
 31
0.0
  0
LINE
  5
E5
330
1F
100
AcDbEntity
  8
0
  6
Continuous
 62
     7
370
    25
100
AcDbLine
 10
6927.2765318948
 20
5152.0829180747
 30
0.0
 11
6970.6730393136
 21
5152.0829180747
 31
0.0
  0
SPLINE
  5
E6
330
1F
100
AcDbEntity
  8
0
  6
Continuous
 62
     7
370
    25
100
AcDbSpline
210
0.0
220
0.0
230
1.0
 70
     8
 71
     3
 72
    21
 73
    17
 74
     0
 42
0.00000001
 43
0.00000001
 40
0.0
 40
0.0
 40
0.0
 40
0.0
 40
0.1059859700279771
 40
0.1605637149797585
 40
0.2151413862575721
 40
0.3211607336379791
 40
0.3757634585648617
 40
0.4303661385836596
 40
0.5362047701175409
 40
0.5907125750748151
 40
0.6452203642120242
 40
0.750913636887779
 40
0.8053433312488867
 40
0.8597730225249118
 40
0.9294594346065687
 40
1.0
 40
1.0
 40
1.0
 40
1.0
 10
6963.378602997904
 20
5102.082918074665
 30
0.0
 10
6963.744802493132
 20
5102.210399747258
 30
0.0
 10
6964.299577350237
 20
5102.403528431534
 30
0.0
 10
6965.055109975079
 20
5103.608531151228
 30
0.0
 10
6965.806611659284
 20
5105.234283020751
 30
0.0
 10
6966.546509363944
 20
5107.54932765372
 30
0.0
 10
6967.251802357308
 20
5110.480717064812
 30
0.0
 10
6967.927307481017
 20
5113.809790506385
 30
0.0
 10
6968.550461021576
 20
5117.70058117263
 30
0.0
 10
6969.100454399327
 20
5122.056609974066
 30
0.0
 10
6969.596002505506
 20
5126.697307329372
 30
0.0
 10
6970.003749019446
 20
5131.722298452734
 30
0.0
 10
6970.309933532652
 20
5137.006490555328
 30
0.0
 10
6970.503931608214
 20
5141.525185163028
 30
0.0
 10
6970.644581997948
 20
5146.56205362028
 30
0.0
 10
6970.663515099836
 20
5150.235171999665
 30
0.0
 10
6970.673039313622
 20
5152.082918074665
 30
0.0
  0
LINE
  5
E7
330
1F
100
AcDbEntity
  8
0
  6
Continuous
 62
     7
370
    25
100
AcDbLine
 10
6963.3786029979
 20
5102.0829180747
 30
0.0
 11
6927.2765318948
 21
5102.0829180747
 31
0.0
  0
LINE
  5
E8
330
1F
100
AcDbEntity
  8
0
  6
Continuous
 62
     7
370
    25
100
AcDbLine
 10
6927.2765318948
 20
5102.0829180747
 30
0.0
 11
6927.2765318948
 21
5152.0829180747
 31
0.0
  0
LINE
  5
E9
330
1F
100
AcDbEntity
  8
0
  6
Continuous
 62
     7
370
    25
100
AcDbLine
 10
6970.6730393136
 20
5257.0829180747
 30
0.0
 11
6927.2765318948
 21
5257.0829180747
 31
0.0
  0
LINE
  5
EA
330
1F
100
AcDbEntity
  8
0
  6
Continuous
 62
     7
370
    25
100
AcDbLine
 10
6970.6730393136
 20
5152.0829180747
 30
0.0
 11
6970.6730393136
 21
5257.0829180747
 31
0.0
  0
LINE
  5
EB
330
1F
100
AcDbEntity
  8
0
  6
Continuous
 62
     7
370
    25
100
AcDbLine
 10
6927.2765318948
 20
5257.0829180747
 30
0.0
 11
6927.2765318948
 21
5152.0829180747
 31
0.0
  0
LINE
  5
EC
330
1F
100
AcDbEntity
  8
0
  6
Continuous
 62
     7
370
    25
100
AcDbLine
 10
6927.2765318948
 20
5307.0829180747
 30
0.0
 11
6963.3786029979
 21
5307.0829180747
 31
0.0
  0
SPLINE
  5
ED
330
1F
100
AcDbEntity
  8
0
  6
Continuous
 62
     7
370
    25
100
AcDbSpline
210
0.0
220
0.0
230
1.0
 70
     8
 71
     3
 72
    21
 73
    17
 74
     0
 42
0.00000001
 43
0.00000001
 40
0.0
 40
0.0
 40
0.0
 40
0.0
 40
0.1056378673711881
 40
0.1600375333411628
 40
0.2144372015137922
 40
0.3200687861796002
 40
0.3744646244457482
 40
0.4288604753026068
 40
0.5344919820589704
 40
0.5888860588323724
 40
0.6432801743187021
 40
0.748965476692018
 40
0.8033844938512981
 40
0.8578035807378169
 40
0.928459758528699
 40
1.0
 40
1.0
 40
1.0
 40
1.0
 10
6970.673039313621
 20
5257.082918074665
 30
0.0
 10
6970.652519055887
 20
5259.852556127086
 30
0.0
 10
6970.621431610512
 20
5264.048457210548
 30
0.0
 10
6970.428491540294
 20
5269.546222454233
 30
0.0
 10
6970.169498438827
 20
5274.924109864291
 30
0.0
 10
6969.803468550268
 20
5280.077185696536
 30
0.0
 10
6969.346143505958
 20
5284.878107280728
 30
0.0
 10
6968.831304684374
 20
5289.413624668176
 30
0.0
 10
6968.238334270616
 20
5293.514142043629
 30
0.0
 10
6967.587243944927
 20
5297.078742185459
 30
0.0
 10
6966.90260974859
 20
5300.262815197173
 30
0.0
 10
6966.177030924021
 20
5302.850485869099
 30
0.0
 10
6965.432779684518
 20
5304.782231976461
 30
0.0
 10
6964.804348307278
 20
5306.009861120811
 30
0.0
 10
6964.114045577402
 20
5306.902170358654
 30
0.0
 10
6963.624764510603
 20
5307.022419631373
 30
0.0
 10
6963.378602997903
 20
5307.082918074665
 30
0.0
  0
LINE
  5
EE
330
1F
100
AcDbEntity
  8
0
  6
Continuous
 62
     7
370
    25
100
AcDbLine
 10
6927.2765318948
 20
5257.0829180747
 30
0.0
 11
6927.2765318948
 21
5307.0829180747
 31
0.0
  0
LINE
  5
EF
330
1F
100
AcDbEntity
  8
0
  6
Continuous
 62
     7
370
    25
100
AcDbLine
 10
6963.8587627199
 20
5307.0661908711
 30
0.0
 11
6963.3786029979
 21
5307.0829180747
 31
0.0
  0
LWPOLYLINE
  5
F0
330
1F
100
AcDbEntity
  8
0
  6
Continuous
 62
     7
370
    25
100
AcDbPolyline
 90
        3
 70
   128
 43
0.0
 10
6964.7480753691
 20
5306.9456663115
 10
6964.7344272762
 20
5306.9484150375
 10
6963.8587627199
 20
5307.0661908711
  0
LINE
  5
F1
330
1F
100
AcDbEntity
  8
0
  6
Continuous
 62
     7
370
    25
100
AcDbLine
 10
6924.2765318948
 20
5304.1523203131
 30
0.0
 11
6924.2765318948
 21
5104.1523203131
 31
0.0
  0
LINE
  5
F2
330
1F
100
AcDbEntity
  8
0
  6
Continuous
 62
     7
370
    25
100
AcDbLine
 10
6927.2765318948
 20
5304.1523203131
 30
0.0
 11
6924.2765318948
 21
5304.1523203131
 31
0.0
  0
LINE
  5
F3
330
1F
100
AcDbEntity
  8
0
  6
Continuous
 62
     7
370
    25
100
AcDbLine
 10
6927.2765318948
 20
5104.1523203131
 30
0.0
 11
6924.2765318948
 21
5104.1523203131
 31
0.0
  0
LINE
  5
F4
330
1F
100
AcDbEntity
  8
0
  6
Continuous
 62
     7
370
    25
100
AcDbLine
 10
6828.2765318948
 20
5137.0829180747
 30
0.0
 11
6828.2765318948
 21
5105.0829180747
 31
0.0
  0
LINE
  5
F5
330
1F
100
AcDbEntity
  8
0
  6
Continuous
 62
     7
370
    25
100
AcDbLine
 10
6824.2765318948
 20
5106.5829180747
 30
0.0
 11
6824.2765318948
 21
5135.5829180747
 31
0.0
  0
LINE
  5
F6
330
1F
100
AcDbEntity
  8
0
  6
Continuous
 62
     7
370
    25
100
AcDbLine
 10
6829.2765318948
 20
5137.0135158362
 30
0.0
 11
6829.2765318948
 21
5105.1523203131
 31
0.0
  0
LINE
  5
F7
330
1F
100
AcDbEntity
  8
0
  6
Continuous
 62
     7
370
    25
100
AcDbLine
 10
6829.2765318948
 20
5137.0829180747
 30
0.0
 11
6829.2765318948
 21
5137.0135158362
 31
0.0
  0
LINE
  5
F8
330
1F
100
AcDbEntity
  8
0
  6
Continuous
 62
     7
370
    25
100
AcDbLine
 10
6829.2765318948
 20
5105.1523203131
 30
0.0
 11
6829.2765318948
 21
5105.0829180747
 31
0.0
  0
ARC
  5
F9
330
1F
100
AcDbEntity
  8
0
  6
Continuous
 62
     7
370
    25
100
AcDbCircle
 10
6908.2765318948
 20
5288.1523203131
 30
0.0
 40
16.0
100
AcDbArc
 50
0.0
 51
90.0
  0
ARC
  5
FA
330
1F
100
AcDbEntity
  8
0
  6
Continuous
 62
     7
370
    25
100
AcDbCircle
 10
6908.2765318948
 20
5288.1523203131
 30
0.0
 40
16.0
100
AcDbArc
 50
270.0
 51
0.0
  0
LINE
  5
FB
330
1F
100
AcDbEntity
  8
0
  6
Continuous
 62
     8
370
    25
100
AcDbLine
 10
6826.9045288242
 20
5248.1523203131
 30
0.0
 11
6826.9045288242
 21
5328.1523203131
 31
0.0
  0
LINE
  5
FC
330
1F
100
AcDbEntity
  8
0
  6
Continuous
 62
     8
370
    25
100
AcDbLine
 10
6829.3034512783
 20
5249.9486363932
 30
0.0
 11
6829.3034512783
 21
5326.356004233
 31
0.0
  0
LINE
  5
FD
330
1F
100
AcDbEntity
  8
0
  6
Continuous
 62
     8
370
    25
100
AcDbLine
 10
6834.0743768031
 20
5266.2131552276
 30
0.0
 11
6834.0743768031
 21
5310.0914853986
 31
0.0
  0
LINE
  5
FE
330
1F
100
AcDbEntity
  8
0
  6
Continuous
 62
     8
370
    25
100
AcDbLine
 10
6976.3002263677
 20
5152.0829180747
 30
0.0
 11
6970.6730393136
 21
5152.0829180747
 31
0.0
  0
LINE
  5
FF
330
1F
100
AcDbEntity
  8
0
  6
Continuous
 62
     8
370
    25
100
AcDbLine
 10
6976.3001188051
 20
5257.0829180747
 30
0.0
 11
6970.6730393136
 21
5257.0829180747
 31
0.0
  0
LINE
  5
100
330
1F
100
AcDbEntity
  8
0
  6
Continuous
 62
     8
370
    25
100
AcDbLine
 10
6825.7765318948
 20
5137.0829180747
 30
0.0
 11
6825.7765318948
 21
5105.0829180747
 31
0.0
  0
LINE
  5
101
330
1F
100
AcDbEntity
  8
0
  6
Continuous
 62
     8
370
    25
100
AcDbLine
 10
6858.2765318948
 20
5288.1523203131
 30
0.0
 11
6858.2765318948
 21
5304.1523203131
 31
0.0
  0
LINE
  5
102
330
1F
100
AcDbEntity
  8
0
  6
Continuous
 62
     8
370
    25
100
AcDbLine
 10
6858.2765318948
 20
5272.1523203131
 30
0.0
 11
6858.2765318948
 21
5288.1523203131
 31
0.0
  0
LINE
  5
103
330
1F
100
AcDbEntity
  8
0
  6
Continuous
 62
     7
370
    25
100
AcDbLine
 10
6548.0187553361
 20
4908.3297329897
 30
0.0
 11
6548.0187553361
 21
4898.2017360604
 31
0.0
  0
LINE
  5
104
330
1F
100
AcDbEntity
  8
0
  6
Continuous
 62
     7
370
    25
100
AcDbLine
 10
6628.0187553361
 20
4898.2017360604
 30
0.0
 11
6628.0187553361
 21
4908.3297329897
 31
0.0
  0
ARC
  5
105
330
1F
100
AcDbEntity
  8
0
  6
Continuous
 62
     7
370
    25
100
AcDbCircle
 10
6550.5187553361
 20
4898.2017360604
 30
0.0
 40
2.49999999999981
100
AcDbArc
 50
180.0
 51
253.6518284527
  0
ARC
  5
106
330
1F
100
AcDbEntity
  8
0
  6
Continuous
 62
     7
370
    25
100
AcDbCircle
 10
6625.5187553361
 20
4898.2017360604
 30
0.0
 40
2.500000000000066
100
AcDbArc
 50
286.3481715473
 51
0.0
  0
LINE
  5
107
330
1F
100
AcDbEntity
  8
0
  6
Continuous
 62
     7
370
    25
100
AcDbLine
 10
6549.8150714162
 20
4895.8028136062
 30
0.0
 11
6566.0795902506
 21
4891.0318880815
 31
0.0
  0
LINE
  5
108
330
1F
100
AcDbEntity
  8
0
  6
Continuous
 62
     7
370
    25
100
AcDbLine
 10
6609.9579204216
 20
4891.0318880815
 30
0.0
 11
6626.222439256
 21
4895.8028136062
 31
0.0
  0
ARC
  5
109
330
1F
100
AcDbEntity
  8
0
  6
Continuous
 62
     7
370
    25
100
AcDbCircle
 10
6567.4869580903
 20
4895.8297329897
 30
0.0
 40
5.000000000000131
100
AcDbArc
 50
253.6518284527
 51
270.0
  0
ARC
  5
10A
330
1F
100
AcDbEntity
  8
0
  6
Continuous
 62
     7
370
    25
100
AcDbCircle
 10
6608.5505525819
 20
4895.8297329897
 30
0.0
 40
5.000000000000131
100
AcDbArc
 50
270.0
 51
286.3481715473
  0
LINE
  5
10B
330
1F
100
AcDbEntity
  8
0
  6
Continuous
 62
     7
370
    25
100
AcDbLine
 10
5920.0187553361
 20
4908.3297329897
 30
0.0
 11
5920.0187553361
 21
4898.2017360604
 31
0.0
  0
LINE
  5
10C
330
1F
100
AcDbEntity
  8
0
  6
Continuous
 62
     7
370
    25
100
AcDbLine
 10
6000.0187553361
 20
4898.2017360604
 30
0.0
 11
6000.0187553361
 21
4908.3297329897
 31
0.0
  0
ARC
  5
10D
330
1F
100
AcDbEntity
  8
0
  6
Continuous
 62
     7
370
    25
100
AcDbCircle
 10
5922.5187553361
 20
4898.2017360604
 30
0.0
 40
2.500000000000066
100
AcDbArc
 50
180.0
 51
253.6518284527
  0
ARC
  5
10E
330
1F
100
AcDbEntity
  8
0
  6
Continuous
 62
     7
370
    25
100
AcDbCircle
 10
5997.5187553361
 20
4898.2017360604
 30
0.0
 40
2.49999999999981
100
AcDbArc
 50
286.3481715473
 51
0.0
  0
LINE
  5
10F
330
1F
100
AcDbEntity
  8
0
  6
Continuous
 62
     7
370
    25
100
AcDbLine
 10
5921.8150714162
 20
4895.8028136062
 30
0.0
 11
5938.0795902506
 21
4891.0318880815
 31
0.0
  0
LINE
  5
110
330
1F
100
AcDbEntity
  8
0
  6
Continuous
 62
     7
370
    25
100
AcDbLine
 10
5981.9579204216
 20
4891.0318880815
 30
0.0
 11
5998.222439256
 21
4895.8028136062
 31
0.0
  0
ARC
  5
111
330
1F
100
AcDbEntity
  8
0
  6
Continuous
 62
     7
370
    25
100
AcDbCircle
 10
5939.4869580903
 20
4895.8297329897
 30
0.0
 40
5.000000000000131
100
AcDbArc
 50
253.6518284527
 51
270.0
  0
ARC
  5
112
330
1F
100
AcDbEntity
  8
0
  6
Continuous
 62
     7
370
    25
100
AcDbCircle
 10
5980.5505525819
 20
4895.8297329897
 30
0.0
 40
5.000000000000131
100
AcDbArc
 50
270.0
 51
286.3481715473
  0
ARC
  5
113
330
1F
100
AcDbEntity
  8
0
  6
Continuous
 62
     7
370
    25
100
AcDbCircle
 10
6403.5187553361
 20
4899.3297329897
 30
0.0
 40
1.5
100
AcDbArc
 50
0.0
 51
90.0
  0
ARC
  5
114
330
1F
100
AcDbEntity
  8
0
  6
Continuous
 62
     7
370
    25
100
AcDbCircle
 10
6374.5187553361
 20
4899.3297329897
 30
0.0
 40
1.5
100
AcDbArc
 50
90.0
 51
180.0
  0
LINE
  5
115
330
1F
100
AcDbEntity
  8
0
  6
Continuous
 62
     7
370
    25
100
AcDbLine
 10
6373.0187553361
 20
4899.3297329897
 30
0.0
 11
6373.0187553361
 21
4896.8297329897
 31
0.0
  0
LINE
  5
116
330
1F
100
AcDbEntity
  8
0
  6
Continuous
 62
     7
370
    25
100
AcDbLine
 10
6405.0187553361
 20
4896.8297329897
 30
0.0
 11
6405.0187553361
 21
4899.3297329897
 31
0.0
  0
LINE
  5
117
330
1F
100
AcDbEntity
  8
0
  6
Continuous
 62
     7
370
    25
100
AcDbLine
 10
6373.0187553361
 20
4895.8297329897
 30
0.0
 11
6373.0187553361
 21
4832.8297329897
 31
0.0
  0
LINE
  5
118
330
1F
100
AcDbEntity
  8
0
  6
Continuous
 62
     7
370
    25
100
AcDbLine
 10
6405.0187553361
 20
4832.8297329897
 30
0.0
 11
6405.0187553361
 21
4895.8297329897
 31
0.0
  0
ARC
  5
119
330
1F
100
AcDbEntity
  8
0
  6
Continuous
 62
     7
370
    25
100
AcDbCircle
 10
6173.5187553361
 20
4899.3297329897
 30
0.0
 40
1.5
100
AcDbArc
 50
0.0
 51
90.0
  0
ARC
  5
11A
330
1F
100
AcDbEntity
  8
0
  6
Continuous
 62
     7
370
    25
100
AcDbCircle
 10
6144.5187553361
 20
4899.3297329897
 30
0.0
 40
1.5
100
AcDbArc
 50
90.0
 51
180.0
  0
LINE
  5
11B
330
1F
100
AcDbEntity
  8
0
  6
Continuous
 62
     7
370
    25
100
AcDbLine
 10
6143.0187553361
 20
4899.3297329897
 30
0.0
 11
6143.0187553361
 21
4896.8297329897
 31
0.0
  0
LINE
  5
11C
330
1F
100
AcDbEntity
  8
0
  6
Continuous
 62
     7
370
    25
100
AcDbLine
 10
6175.0187553361
 20
4896.8297329897
 30
0.0
 11
6175.0187553361
 21
4899.3297329897
 31
0.0
  0
LINE
  5
11D
330
1F
100
AcDbEntity
  8
0
  6
Continuous
 62
     7
370
    25
100
AcDbLine
 10
6143.0881575746
 20
4895.8297329897
 30
0.0
 11
6143.0881575746
 21
4832.8297329897
 31
0.0
  0
LINE
  5
11E
330
1F
100
AcDbEntity
  8
0
  6
Continuous
 62
     7
370
    25
100
AcDbLine
 10
6174.9493530976
 20
4832.8297329897
 30
0.0
 11
6174.9493530976
 21
4895.8297329897
 31
0.0
  0
LINE
  5
11F
330
1F
100
AcDbEntity
  8
0
  6
Continuous
 62
     7
370
    25
100
AcDbLine
 10
6375.0187553361
 20
4896.8297329897
 30
0.0
 11
6375.0187553361
 21
4895.8297329897
 31
0.0
  0
LINE
  5
120
330
1F
100
AcDbEntity
  8
0
  6
Continuous
 62
     7
370
    25
100
AcDbLine
 10
6403.0187553361
 20
4895.8297329897
 30
0.0
 11
6403.0187553361
 21
4896.8297329897
 31
0.0
  0
LINE
  5
121
330
1F
100
AcDbEntity
  8
0
  6
Continuous
 62
     7
370
    25
100
AcDbLine
 10
6145.0187553361
 20
4896.8297329897
 30
0.0
 11
6145.0187553361
 21
4895.8297329897
 31
0.0
  0
LINE
  5
122
330
1F
100
AcDbEntity
  8
0
  6
Continuous
 62
     7
370
    25
100
AcDbLine
 10
6173.0187553361
 20
4895.8297329897
 30
0.0
 11
6173.0187553361
 21
4896.8297329897
 31
0.0
  0
LINE
  5
123
330
1F
100
AcDbEntity
  8
0
  6
Continuous
 62
     7
370
    25
100
AcDbLine
 10
6572.0187553361
 20
4890.8297329897
 30
0.0
 11
6572.0187553361
 21
4866.8297329897
 31
0.0
  0
LINE
  5
124
330
1F
100
AcDbEntity
  8
0
  6
Continuous
 62
     7
370
    25
100
AcDbLine
 10
6604.0187553361
 20
4866.8297329897
 30
0.0
 11
6604.0187553361
 21
4890.8297329897
 31
0.0
  0
LINE
  5
125
330
1F
100
AcDbEntity
  8
0
  6
Continuous
 62
     7
370
    25
100
AcDbLine
 10
5976.0187553361
 20
4866.8297329897
 30
0.0
 11
5976.0187553361
 21
4890.8297329897
 31
0.0
  0
LINE
  5
126
330
1F
100
AcDbEntity
  8
0
  6
Continuous
 62
     7
370
    25
100
AcDbLine
 10
5944.0187553361
 20
4890.8297329897
 30
0.0
 11
5944.0187553361
 21
4866.8297329897
 31
0.0
  0
ARC
  5
127
330
1F
100
AcDbEntity
  8
0
  6
Continuous
 62
     7
370
    25
100
AcDbCircle
 10
6010.0187553361
 20
4866.8297329897
 30
0.0
 40
34.0
100
AcDbArc
 50
180.0
 51
270.0
  0
ARC
  5
128
330
1F
100
AcDbEntity
  8
0
  6
Continuous
 62
     7
370
    25
100
AcDbCircle
 10
6010.0187553361
 20
4866.8297329897
 30
0.0
 40
66.0
100
AcDbArc
 50
180.0
 51
270.0
  0
ARC
  5
129
330
1F
100
AcDbEntity
  8
0
  6
Continuous
 62
     7
370
    25
100
AcDbCircle
 10
6538.0187553361
 20
4866.8297329897
 30
0.0
 40
34.0
100
AcDbArc
 50
270.0
 51
0.0
  0
ARC
  5
12A
330
1F
100
AcDbEntity
  8
0
  6
Continuous
 62
     7
370
    25
100
AcDbCircle
 10
6538.0187553361
 20
4866.8297329897
 30
0.0
 40
66.0
100
AcDbArc
 50
270.0
 51
0.0
  0
LINE
  5
12B
330
1F
100
AcDbEntity
  8
0
  6
Continuous
 62
     7
370
    25
100
AcDbLine
 10
6538.0187553361
 20
4832.8297329897
 30
0.0
 11
6010.0187553361
 21
4832.8297329897
 31
0.0
  0
LINE
  5
12C
330
1F
100
AcDbEntity
  8
0
  6
Continuous
 62
     7
370
    25
100
AcDbLine
 10
6010.0187553361
 20
4800.8297329897
 30
0.0
 11
6139.5187553361
 21
4800.8297329897
 31
0.0
  0
LINE
  5
12D
330
1F
100
AcDbEntity
  8
0
  6
Continuous
 62
     7
370
    25
100
AcDbLine
 10
6178.5187553361
 20
4800.8297329897
 30
0.0
 11
6369.5187553361
 21
4800.8297329897
 31
0.0
  0
LINE
  5
12E
330
1F
100
AcDbEntity
  8
0
  6
Continuous
 62
     7
370
    25
100
AcDbLine
 10
6408.5187553361
 20
4800.8297329897
 30
0.0
 11
6538.0187553361
 21
4800.8297329897
 31
0.0
  0
LINE
  5
12F
330
1F
100
AcDbEntity
  8
0
  6
Continuous
 62
     7
370
    25
100
AcDbLine
 10
6588.0187553361
 20
4908.3297329897
 30
0.0
 11
6628.0187553361
 21
4908.3297329897
 31
0.0
  0
LINE
  5
130
330
1F
100
AcDbEntity
  8
0
  6
Continuous
 62
     7
370
    25
100
AcDbLine
 10
6548.0187553361
 20
4908.3297329897
 30
0.0
 11
6588.0187553361
 21
4908.3297329897
 31
0.0
  0
LINE
  5
131
330
1F
100
AcDbEntity
  8
0
  6
Continuous
 62
     7
370
    25
100
AcDbLine
 10
6588.0187553361
 20
4890.8297329897
 30
0.0
 11
6567.4869580903
 21
4890.8297329897
 31
0.0
  0
LINE
  5
132
330
1F
100
AcDbEntity
  8
0
  6
Continuous
 62
     7
370
    25
100
AcDbLine
 10
6608.5505525819
 20
4890.8297329897
 30
0.0
 11
6588.0187553361
 21
4890.8297329897
 31
0.0
  0
LINE
  5
133
330
1F
100
AcDbEntity
  8
0
  6
Continuous
 62
     7
370
    25
100
AcDbLine
 10
5960.0187553361
 20
4908.3297329897
 30
0.0
 11
6000.0187553361
 21
4908.3297329897
 31
0.0
  0
LINE
  5
134
330
1F
100
AcDbEntity
  8
0
  6
Continuous
 62
     7
370
    25
100
AcDbLine
 10
5920.0187553361
 20
4908.3297329897
 30
0.0
 11
5960.0187553361
 21
4908.3297329897
 31
0.0
  0
LINE
  5
135
330
1F
100
AcDbEntity
  8
0
  6
Continuous
 62
     7
370
    25
100
AcDbLine
 10
5960.0187553361
 20
4890.8297329897
 30
0.0
 11
5939.4869580903
 21
4890.8297329897
 31
0.0
  0
LINE
  5
136
330
1F
100
AcDbEntity
  8
0
  6
Continuous
 62
     7
370
    25
100
AcDbLine
 10
5980.5505525819
 20
4890.8297329897
 30
0.0
 11
5960.0187553361
 21
4890.8297329897
 31
0.0
  0
LINE
  5
137
330
1F
100
AcDbEntity
  8
0
  6
Continuous
 62
     7
370
    25
100
AcDbLine
 10
6424.5285602002
 20
4797.8297329897
 30
0.0
 11
6475.5187553361
 21
4797.8297329897
 31
0.0
  0
LINE
  5
138
330
1F
100
AcDbEntity
  8
0
  6
Continuous
 62
     7
370
    25
100
AcDbLine
 10
6475.5187553361
 20
4797.8297329897
 30
0.0
 11
6466.8394538523
 21
4754.4332255709
 31
0.0
  0
SPLINE
  5
139
330
1F
100
AcDbEntity
  8
0
  6
Continuous
 62
     7
370
    25
100
AcDbSpline
210
0.0
220
0.0
230
1.0
 70
     8
 71
     3
 72
    21
 73
    17
 74
     0
 42
0.00000001
 43
0.00000001
 40
0.0
 40
0.0
 40
0.0
 40
0.0
 40
0.1059859700279769
 40
0.1605637149797584
 40
0.2151413862575719
 40
0.3211607336379791
 40
0.3757634585648609
 40
0.4303661385836592
 40
0.5362047701175406
 40
0.5907125750748152
 40
0.6452203642120242
 40
0.7509136368877789
 40
0.8053433312488867
 40
0.8597730225249116
 40
0.9294594346065685
 40
1.0
 40
1.0
 40
1.0
 40
1.0
 10
6417.308145979552
 20
4761.727661886628
 30
0.0
 10
6420.062676298221
 20
4761.361462391399
 30
0.0
 10
6424.23565901351
 20
4760.806687534293
 30
0.0
 10
6429.699780004759
 20
4760.051154909452
 30
0.0
 10
6435.044135934024
 20
4759.299653225245
 30
0.0
 10
6440.163015701739
 20
4758.559755520587
 30
0.0
 10
6444.929649580395
 20
4757.854462527222
 30
0.0
 10
6449.426709852514
 20
4757.178957403514
 30
0.0
 10
6453.487528365384
 20
4756.555803862954
 30
0.0
 10
6457.012837309504
 20
4756.005810485203
 30
0.0
 10
6460.156331382918
 20
4755.510262379024
 30
0.0
 10
6462.706242909989
 20
4755.102515865084
 30
0.0
 10
6464.604715002899
 20
4754.796331351879
 30
0.0
 10
6465.801346839769
 20
4754.602333276317
 30
0.0
 10
6466.665106365388
 20
4754.461682886583
 30
0.0
 10
6466.781102504036
 20
4754.442749784694
 30
0.0
 10
6466.839453852336
 20
4754.433225570909
 30
0.0
  0
LINE
  5
13A
330
1F
100
AcDbEntity
  8
0
  6
Continuous
 62
     7
370
    25
100
AcDbLine
 10
6417.3081459796
 20
4761.7276618866
 30
0.0
 11
6424.5285602002
 21
4797.8297329897
 31
0.0
  0
SPLINE
  5
13B
330
1F
100
AcDbEntity
  8
0
  6
Continuous
 62
     7
370
    25
100
AcDbSpline
210
0.0
220
0.0
230
1.0
 70
     8
 71
     3
 72
    17
 73
    13
 74
     0
 42
0.00000001
 43
0.00000001
 40
0.0
 40
0.0
 40
0.0
 40
0.0
 40
0.0703256705661051
 40
0.1406512260168083
 40
0.2481188011182522
 40
0.3555844244172289
 40
0.4630305349735786
 40
0.5704741424381636
 40
0.6779262779777679
 40
0.7853769534065818
 40
0.8926882063842757
 40
1.0
 40
1.0
 40
1.0
 40
1.0
 10
6458.888582418082
 20
4748.890920933839
 30
0.0
 10
6458.83854676701
 20
4748.898806624413
 30
0.0
 10
6458.738475546766
 20
4748.914577992654
 30
0.0
 10
6457.807109422474
 20
4749.060559457657
 30
0.0
 10
6455.912515495621
 20
4749.355974480246
 30
0.0
 10
6452.656754414755
 20
4749.855488788669
 30
0.0
 10
6448.35615837153
 20
4750.501162512308
 30
0.0
 10
6443.161954251765
 20
4751.259687997545
 30
0.0
 10
6437.185522622268
 20
4752.102731772906
 30
0.0
 10
6430.626053693987
 20
4752.992436733589
 30
0.0
 10
6423.650717387009
 20
4753.899344515096
 30
0.0
 10
6418.864045890491
 20
4754.485071621291
 30
0.0
 10
6416.470704113391
 20
4754.777935912116
 30
0.0
  0
LINE
  5
13C
330
1F
100
AcDbEntity
  8
0
  6
Continuous
 62
     7
370
    25
100
AcDbLine
 10
6416.4707041134
 20
4754.7779359121
 30
0.0
 11
6417.3081459796
 21
4761.7276618866
 31
0.0
  0
ARC
  5
13D
330
1F
100
AcDbEntity
  8
0
  6
Continuous
 62
     7
370
    25
100
AcDbCircle
 10
6459.9753891225
 20
4755.8060385169
 30
0.0
 40
7.000000000000093
100
AcDbArc
 50
261.0682344551
 51
348.690067526
  0
LINE
  5
13E
330
1F
100
AcDbEntity
  8
0
  6
Continuous
 62
     7
370
    25
100
AcDbLine
 10
6072.5187553361
 20
4797.8297329897
 30
0.0
 11
6123.508950472
 21
4797.8297329897
 31
0.0
  0
LINE
  5
13F
330
1F
100
AcDbEntity
  8
0
  6
Continuous
 62
     7
370
    25
100
AcDbLine
 10
6123.508950472
 20
4797.8297329897
 30
0.0
 11
6130.7293646926
 21
4761.7276618866
 31
0.0
  0
SPLINE
  5
140
330
1F
100
AcDbEntity
  8
0
  6
Continuous
 62
     7
370
    25
100
AcDbSpline
210
0.0
220
0.0
230
1.0
 70
     8
 71
     3
 72
    21
 73
    17
 74
     0
 42
0.00000001
 43
0.00000001
 40
0.0
 40
0.0
 40
0.0
 40
0.0
 40
0.1056378673711881
 40
0.1600375333411628
 40
0.2144372015137922
 40
0.3200687861796002
 40
0.3744646244457482
 40
0.4288604753026068
 40
0.5344919820589704
 40
0.5888860588323724
 40
0.6432801743187021
 40
0.748965476692018
 40
0.8033844938512981
 40
0.8578035807378169
 40
0.928459758528699
 40
1.0
 40
1.0
 40
1.0
 40
1.0
 10
6081.198056819864
 20
4754.43322557091
 30
0.0
 10
6081.323687129301
 20
4754.453745828644
 30
0.0
 10
6081.514012486442
 20
4754.484833274018
 30
0.0
 10
6082.700854707556
 20
4754.677773344237
 30
0.0
 10
6084.301459909152
 20
4754.936766445704
 30
0.0
 10
6086.579673772888
 20
4755.302796334263
 30
0.0
 10
6089.463499779358
 20
4755.760121378573
 30
0.0
 10
6092.741169601241
 20
4756.274960200156
 30
0.0
 10
6096.574286109521
 20
4756.867930613916
 30
0.0
 10
6100.86922974037
 20
4757.519020939605
 30
0.0
 10
6105.450325327462
 20
4758.20365513594
 30
0.0
 10
6110.415799356941
 20
4758.92923396051
 30
0.0
 10
6115.643250748496
 20
4759.673485200013
 30
0.0
 10
6120.139774099856
 20
4760.301916577253
 30
0.0
 10
6125.179180124978
 20
4760.992219307129
 30
0.0
 10
6128.871650892785
 20
4761.481500373927
 30
0.0
 10
6130.729364692648
 20
4761.727661886628
 30
0.0
  0
LINE
  5
141
330
1F
100
AcDbEntity
  8
0
  6
Continuous
 62
     7
370
    25
100
AcDbLine
 10
6081.1980568199
 20
4754.4332255709
 30
0.0
 11
6072.5187553361
 21
4797.8297329897
 31
0.0
  0
SPLINE
  5
142
330
1F
100
AcDbEntity
  8
0
  6
Continuous
 62
     7
370
    25
100
AcDbSpline
210
0.0
220
0.0
230
1.0
 70
     8
 71
     3
 72
    17
 73
    13
 74
     0
 42
0.00000001
 43
0.00000001
 40
0.0
 40
0.0
 40
0.0
 40
0.0
 40
0.0709577098286592
 40
0.1419152517008762
 40
0.2489702802349057
 40
0.3560261112620856
 40
0.4631870198693181
 40
0.5703502255149315
 40
0.6776972968286453
 40
0.7850466674398761
 40
0.8925228652304602
 40
1.0
 40
1.0
 40
1.0
 40
1.0
 10
6131.56680655881
 20
4754.777935912116
 30
0.0
 10
6129.984960805803
 20
4754.585414549508
 30
0.0
 10
6126.821273044009
 20
4754.20037227999
 30
0.0
 10
6121.343877353091
 20
4753.505874090132
 30
0.0
 10
6115.271959824126
 20
4752.706286620679
 30
0.0
 10
6108.890819621733
 20
4751.829756871814
 30
0.0
 10
6103.169386164379
 20
4751.012889853319
 30
0.0
 10
6098.238371597854
 20
4750.286419109259
 30
0.0
 10
6094.265304634152
 20
4749.685415083525
 30
0.0
 10
6091.348342459629
 20
4749.235220437169
 30
0.0
 10
6089.503183879321
 20
4748.946914140741
 30
0.0
 10
6089.267013805673
 20
4748.909585390378
 30
0.0
 10
6089.148928254118
 20
4748.890920933839
 30
0.0
  0
ARC
  5
143
330
1F
100
AcDbEntity
  8
0
  6
Continuous
 62
     7
370
    25
100
AcDbCircle
 10
6088.0621215497
 20
4755.8060385169
 30
0.0
 40
7.000000000000546
100
AcDbArc
 50
191.309932474
 51
278.9317655449
  0
LINE
  5
144
330
1F
100
AcDbEntity
  8
0
  6
Continuous
 62
     7
370
    25
100
AcDbLine
 10
6131.5668065588
 20
4754.7779359121
 30
0.0
 11
6130.7293646926
 21
4761.7276618866
 31
0.0
  0
ARC
  5
145
330
1F
100
AcDbEntity
  8
0
  6
Continuous
 62
     7
370
    25
100
AcDbCircle
 10
6274.0187553361
 20
3572.6039265381
 30
0.0
 40
1197.725806451622
100
AcDbArc
 50
83.1289879682
 51
96.8710120318
  0
LINE
  5
146
330
1F
100
AcDbEntity
  8
0
  6
Continuous
 62
     7
370
    25
100
AcDbLine
 10
6424.5285602002
 20
4797.8297329897
 30
0.0
 11
6123.508950472
 21
4797.8297329897
 31
0.0
  0
ARC
  5
147
330
1F
100
AcDbEntity
  8
0
  6
Continuous
 62
     7
370
    25
100
AcDbCircle
 10
6274.0187553361
 20
3572.6039265381
 30
0.0
 40
1190.725806451621
100
AcDbArc
 50
83.1289879682
 51
96.8710120318
  0
LINE
  5
148
330
1F
100
AcDbEntity
  8
0
  6
Continuous
 62
     7
370
    25
100
AcDbLine
 10
6408.5187553361
 20
4797.8297329897
 30
0.0
 11
6408.5187553361
 21
4800.8297329897
 31
0.0
  0
LINE
  5
149
330
1F
100
AcDbEntity
  8
0
  6
Continuous
 62
     7
370
    25
100
AcDbLine
 10
6369.5187553361
 20
4797.8297329897
 30
0.0
 11
6369.5187553361
 21
4800.8297329897
 31
0.0
  0
LINE
  5
14A
330
1F
100
AcDbEntity
  8
0
  6
Continuous
 62
     7
370
    25
100
AcDbLine
 10
6408.5187553361
 20
4800.8297329897
 30
0.0
 11
6369.5187553361
 21
4800.8297329897
 31
0.0
  0
LINE
  5
14B
330
1F
100
AcDbEntity
  8
0
  6
Continuous
 62
     7
370
    25
100
AcDbLine
 10
6178.5187553361
 20
4800.8297329897
 30
0.0
 11
6139.5187553361
 21
4800.8297329897
 31
0.0
  0
LINE
  5
14C
330
1F
100
AcDbEntity
  8
0
  6
Continuous
 62
     7
370
    25
100
AcDbLine
 10
6178.5187553361
 20
4797.8297329897
 30
0.0
 11
6178.5187553361
 21
4800.8297329897
 31
0.0
  0
LINE
  5
14D
330
1F
100
AcDbEntity
  8
0
  6
Continuous
 62
     7
370
    25
100
AcDbLine
 10
6139.5187553361
 20
4797.8297329897
 30
0.0
 11
6139.5187553361
 21
4800.8297329897
 31
0.0
  0
LINE
  5
14E
330
1F
100
AcDbEntity
  8
0
  6
Continuous
 62
     7
370
    25
100
AcDbLine
 10
6403.5187553361
 20
4900.8297329897
 30
0.0
 11
6374.5187553361
 21
4900.8297329897
 31
0.0
  0
LINE
  5
14F
330
1F
100
AcDbEntity
  8
0
  6
Continuous
 62
     7
370
    25
100
AcDbLine
 10
6405.0187553361
 20
4896.8297329897
 30
0.0
 11
6373.0187553361
 21
4896.8297329897
 31
0.0
  0
LINE
  5
150
330
1F
100
AcDbEntity
  8
0
  6
Continuous
 62
     7
370
    25
100
AcDbLine
 10
6405.0187553361
 20
4895.8297329897
 30
0.0
 11
6373.0187553361
 21
4895.8297329897
 31
0.0
  0
LINE
  5
151
330
1F
100
AcDbEntity
  8
0
  6
Continuous
 62
     7
370
    25
100
AcDbLine
 10
6173.5187553361
 20
4900.8297329897
 30
0.0
 11
6144.5187553361
 21
4900.8297329897
 31
0.0
  0
LINE
  5
152
330
1F
100
AcDbEntity
  8
0
  6
Continuous
 62
     7
370
    25
100
AcDbLine
 10
6175.0187553361
 20
4896.8297329897
 30
0.0
 11
6143.0187553361
 21
4896.8297329897
 31
0.0
  0
LINE
  5
153
330
1F
100
AcDbEntity
  8
0
  6
Continuous
 62
     7
370
    25
100
AcDbLine
 10
6174.9493530976
 20
4895.8297329897
 30
0.0
 11
6143.0881575746
 21
4895.8297329897
 31
0.0
  0
LINE
  5
154
330
1F
100
AcDbEntity
  8
0
  6
Continuous
 62
     8
370
    25
100
AcDbLine
 10
6588.0187553361
 20
4898.2017360604
 30
0.0
 11
6628.0187553361
 21
4898.2017360604
 31
0.0
  0
LINE
  5
155
330
1F
100
AcDbEntity
  8
0
  6
Continuous
 62
     8
370
    25
100
AcDbLine
 10
6548.0187553361
 20
4898.2017360604
 30
0.0
 11
6588.0187553361
 21
4898.2017360604
 31
0.0
  0
LINE
  5
156
330
1F
100
AcDbEntity
  8
0
  6
Continuous
 62
     8
370
    25
100
AcDbLine
 10
6588.0187553361
 20
4895.8028136062
 30
0.0
 11
6626.222439256
 21
4895.8028136062
 31
0.0
  0
LINE
  5
157
330
1F
100
AcDbEntity
  8
0
  6
Continuous
 62
     8
370
    25
100
AcDbLine
 10
6549.8150714162
 20
4895.8028136062
 30
0.0
 11
6588.0187553361
 21
4895.8028136062
 31
0.0
  0
LINE
  5
158
330
1F
100
AcDbEntity
  8
0
  6
Continuous
 62
     8
370
    25
100
AcDbLine
 10
6566.0795902506
 20
4891.0318880815
 30
0.0
 11
6609.9579204216
 21
4891.0318880815
 31
0.0
  0
LINE
  5
159
330
1F
100
AcDbEntity
  8
0
  6
Continuous
 62
     8
370
    25
100
AcDbLine
 10
5960.0187553361
 20
4898.2017360604
 30
0.0
 11
6000.0187553361
 21
4898.2017360604
 31
0.0
  0
LINE
  5
15A
330
1F
100
AcDbEntity
  8
0
  6
Continuous
 62
     8
370
    25
100
AcDbLine
 10
5920.0187553361
 20
4898.2017360604
 30
0.0
 11
5960.0187553361
 21
4898.2017360604
 31
0.0
  0
LINE
  5
15B
330
1F
100
AcDbEntity
  8
0
  6
Continuous
 62
     8
370
    25
100
AcDbLine
 10
5960.0187553361
 20
4895.8028136062
 30
0.0
 11
5998.222439256
 21
4895.8028136062
 31
0.0
  0
LINE
  5
15C
330
1F
100
AcDbEntity
  8
0
  6
Continuous
 62
     8
370
    25
100
AcDbLine
 10
5921.8150714162
 20
4895.8028136062
 30
0.0
 11
5960.0187553361
 21
4895.8028136062
 31
0.0
  0
LINE
  5
15D
330
1F
100
AcDbEntity
  8
0
  6
Continuous
 62
     8
370
    25
100
AcDbLine
 10
5938.0795902506
 20
4891.0318880815
 30
0.0
 11
5981.9579204216
 21
4891.0318880815
 31
0.0
  0
LINE
  5
15E
330
1F
100
AcDbEntity
  8
0
  6
Continuous
 62
     8
370
    25
100
AcDbLine
 10
6405.0187553361
 20
4899.3297329897
 30
0.0
 11
6373.0187553361
 21
4899.3297329897
 31
0.0
  0
LINE
  5
15F
330
1F
100
AcDbEntity
  8
0
  6
Continuous
 62
     8
370
    25
100
AcDbLine
 10
6175.0187553361
 20
4899.3297329897
 30
0.0
 11
6143.0187553361
 21
4899.3297329897
 31
0.0
  0
LINE
  5
160
330
1F
100
AcDbEntity
  8
0
  6
Continuous
 62
     8
370
    25
100
AcDbLine
 10
6604.0187553361
 20
4866.8297329897
 30
0.0
 11
6572.0187553361
 21
4866.8297329897
 31
0.0
  0
LINE
  5
161
330
1F
100
AcDbEntity
  8
0
  6
Continuous
 62
     8
370
    25
100
AcDbLine
 10
5944.0187553361
 20
4866.8297329897
 30
0.0
 11
5976.0187553361
 21
4866.8297329897
 31
0.0
  0
LINE
  5
162
330
1F
100
AcDbEntity
  8
0
  6
Continuous
 62
     8
370
    25
100
AcDbLine
 10
6010.0187553361
 20
4800.8297329897
 30
0.0
 11
6010.0187553361
 21
4832.8297329897
 31
0.0
  0
LINE
  5
163
330
1F
100
AcDbEntity
  8
0
  6
Continuous
 62
     8
370
    25
100
AcDbLine
 10
6538.0187553361
 20
4800.8297329897
 30
0.0
 11
6538.0187553361
 21
4832.8297329897
 31
0.0
  0
ENDSEC
  0
SECTION
  2
OBJECTS
  0
DICTIONARY
  5
C
330
0
100
AcDbDictionary
281
     1
  3
ACAD_GROUP
350
D
  3
ACAD_LAYOUT
350
1A
  3
ACAD_MLINESTYLE
350
17
  3
ACAD_PLOTSETTINGS
350
19
  3
ACAD_PLOTSTYLENAME
350
E
  3
ACAD_SCALELIST
350
47
  3
DWGPROPS
350
164
  0
DICTIONARY
  5
D
102
{ACAD_REACTORS
330
C
102
}
330
C
100
AcDbDictionary
281
     1
  0
DICTIONARY
  5
1A
102
{ACAD_REACTORS
330
C
102
}
330
C
100
AcDbDictionary
281
     1
  3
Layout1
350
1E
  3
Layout2
350
26
  3
Model
350
22
  0
DICTIONARY
  5
17
102
{ACAD_REACTORS
330
C
102
}
330
C
100
AcDbDictionary
281
     1
  3
Standard
350
18
  0
DICTIONARY
  5
19
102
{ACAD_REACTORS
330
C
102
}
330
C
100
AcDbDictionary
281
     1
  0
ACDBDICTIONARYWDFLT
  5
E
102
{ACAD_REACTORS
330
C
102
}
330
C
100
AcDbDictionary
281
     1
  3
Normal
350
F
100
AcDbDictionaryWithDefault
340
F
  0
DICTIONARY
  5
47
102
{ACAD_REACTORS
330
C
102
}
330
C
100
AcDbDictionary
281
     1
  3
A0
350
48
  3
A1
350
49
  3
A2
350
4A
  3
A3
350
4B
  3
A4
350
4C
  3
A5
350
4D
  3
A6
350
4E
  3
A7
350
4F
  3
A8
350
50
  3
A9
350
51
  3
B0
350
52
  3
B1
350
53
  3
B2
350
54
  3
B3
350
55
  3
B4
350
56
  3
B5
350
57
  3
B6
350
58
  3
B7
350
59
  3
B8
350
5A
  3
B9
350
5B
  3
C0
350
5C
  3
C1
350
5D
  3
C2
350
5E
  3
C3
350
5F
  3
C4
350
60
  3
C5
350
61
  3
C6
350
62
  3
C7
350
63
  3
C8
350
64
  3
C9
350
65
  3
D0
350
66
  3
D1
350
67
  3
D2
350
68
  0
XRECORD
  5
164
102
{ACAD_REACTORS
330
C
102
}
330
C
100
AcDbXrecord
280
     1
  1
DWGPROPS COOKIE
  2

  3

  4

  6

  7

  8
radek.stransky
  9

300
=
301
=
302
=
303
=
304
=
305
=
306
=
307
=
308
=
309
=
 40
0.0
 41
2460523.353482998
 42
2460523.353483565
  1

 90
        0
  0
LAYOUT
  5
1E
102
{ACAD_REACTORS
330
1A
102
}
330
1A
100
AcDbPlotSettings
  1

  2
none_device
  4

  6

 40
0.0
 41
0.0
 42
0.0
 43
0.0
 44
0.0
 45
0.0
 46
0.0
 47
0.0
 48
0.0
 49
0.0
140
0.0
141
0.0
142
1.0
143
1.0
 70
   688
 72
     1
 73
     0
 74
     5
  7

 75
    16
147
1.0
148
0.0
149
0.0
100
AcDbLayout
  1
Layout1
 70
     1
 71
     1
 10
0.0
 20
0.0
 11
420.0
 21
297.0
 12
0.0
 22
0.0
 32
0.0
 14
1.0000000000E+20
 24
1.0000000000E+20
 34
1.0000000000E+20
 15
-1.0000000000E+20
 25
-1.0000000000E+20
 35
-1.0000000000E+20
146
0.0
 13
0.0
 23
0.0
 33
0.0
 16
1.0
 26
0.0
 36
0.0
 17
0.0
 27
1.0
 37
0.0
 76
     0
330
1B
  0
LAYOUT
  5
26
102
{ACAD_REACTORS
330
1A
102
}
330
1A
100
AcDbPlotSettings
  1

  2
none_device
  4

  6

 40
0.0
 41
0.0
 42
0.0
 43
0.0
 44
0.0
 45
0.0
 46
0.0
 47
0.0
 48
0.0
 49
0.0
140
0.0
141
0.0
142
1.0
143
1.0
 70
   688
 72
     1
 73
     0
 74
     5
  7

 75
    16
147
1.0
148
0.0
149
0.0
100
AcDbLayout
  1
Layout2
 70
     1
 71
     2
 10
0.0
 20
0.0
 11
0.0
 21
0.0
 12
0.0
 22
0.0
 32
0.0
 14
0.0
 24
0.0
 34
0.0
 15
0.0
 25
0.0
 35
0.0
146
0.0
 13
0.0
 23
0.0
 33
0.0
 16
1.0
 26
0.0
 36
0.0
 17
0.0
 27
1.0
 37
0.0
 76
     0
330
23
  0
LAYOUT
  5
22
102
{ACAD_REACTORS
330
1A
102
}
330
1A
100
AcDbPlotSettings
  1

  2
none_device
  4
Letter_(8.50_x_11.00_Inches)
  6

 40
6.35
 41
6.35
 42
6.35000508
 43
6.35000508
 44
215.9
 45
279.4
 46
0.0
 47
0.0
 48
0.0
 49
0.0
140
0.0
141
0.0
142
1.0
143
1.0
 70
  1712
 72
     1
 73
     0
 74
     0
  7

 75
     0
147
1.0
148
0.0
149
0.0
100
AcDbLayout
  1
Model
 70
     1
 71
     0
 10
0.0
 20
0.0
 11
20000.0
 21
10000.0
 12
0.0
 22
0.0
 32
0.0
 14
0.0
 24
0.0
 34
0.0
 15
20000.0
 25
10000.0
 35
0.0
146
0.0
 13
0.0
 23
0.0
 33
0.0
 16
1.0
 26
0.0
 36
0.0
 17
0.0
 27
1.0
 37
0.0
 76
     0
330
1F
331
29
  0
MLINESTYLE
  5
18
102
{ACAD_REACTORS
330
17
102
}
330
17
100
AcDbMlineStyle
  2
Standard
 70
     0
  3

 62
   256
 51
90.0
 52
90.0
 71
     2
 49
0.5
 62
   256
  6
BYLAYER
 49
-0.5
 62
   256
  6
BYLAYER
  0
ACDBPLACEHOLDER
  5
F
102
{ACAD_REACTORS
330
E
102
}
330
E
  0
SCALE
  5
48
102
{ACAD_REACTORS
330
47
102
}
330
47
100
AcDbScale
 70
     0
300
1:1
140
1.0
141
1.0
290
     1
  0
SCALE
  5
49
102
{ACAD_REACTORS
330
47
102
}
330
47
100
AcDbScale
 70
     0
300
1:2
140
1.0
141
2.0
290
     0
  0
SCALE
  5
4A
102
{ACAD_REACTORS
330
47
102
}
330
47
100
AcDbScale
 70
     0
300
1:4
140
1.0
141
4.0
290
     0
  0
SCALE
  5
4B
102
{ACAD_REACTORS
330
47
102
}
330
47
100
AcDbScale
 70
     0
300
1:5
140
1.0
141
5.0
290
     0
  0
SCALE
  5
4C
102
{ACAD_REACTORS
330
47
102
}
330
47
100
AcDbScale
 70
     0
300
1:8
140
1.0
141
8.0
290
     0
  0
SCALE
  5
4D
102
{ACAD_REACTORS
330
47
102
}
330
47
100
AcDbScale
 70
     0
300
1:10
140
1.0
141
10.0
290
     0
  0
SCALE
  5
4E
102
{ACAD_REACTORS
330
47
102
}
330
47
100
AcDbScale
 70
     0
300
1:16
140
1.0
141
16.0
290
     0
  0
SCALE
  5
4F
102
{ACAD_REACTORS
330
47
102
}
330
47
100
AcDbScale
 70
     0
300
1:20
140
1.0
141
20.0
290
     0
  0
SCALE
  5
50
102
{ACAD_REACTORS
330
47
102
}
330
47
100
AcDbScale
 70
     0
300
1:30
140
1.0
141
30.0
290
     0
  0
SCALE
  5
51
102
{ACAD_REACTORS
330
47
102
}
330
47
100
AcDbScale
 70
     0
300
1:40
140
1.0
141
40.0
290
     0
  0
SCALE
  5
52
102
{ACAD_REACTORS
330
47
102
}
330
47
100
AcDbScale
 70
     0
300
1:50
140
1.0
141
50.0
290
     0
  0
SCALE
  5
53
102
{ACAD_REACTORS
330
47
102
}
330
47
100
AcDbScale
 70
     0
300
1:100
140
1.0
141
100.0
290
     0
  0
SCALE
  5
54
102
{ACAD_REACTORS
330
47
102
}
330
47
100
AcDbScale
 70
     0
300
2:1
140
2.0
141
1.0
290
     0
  0
SCALE
  5
55
102
{ACAD_REACTORS
330
47
102
}
330
47
100
AcDbScale
 70
     0
300
4:1
140
4.0
141
1.0
290
     0
  0
SCALE
  5
56
102
{ACAD_REACTORS
330
47
102
}
330
47
100
AcDbScale
 70
     0
300
8:1
140
8.0
141
1.0
290
     0
  0
SCALE
  5
57
102
{ACAD_REACTORS
330
47
102
}
330
47
100
AcDbScale
 70
     0
300
10:1
140
10.0
141
1.0
290
     0
  0
SCALE
  5
58
102
{ACAD_REACTORS
330
47
102
}
330
47
100
AcDbScale
 70
     0
300
100:1
140
100.0
141
1.0
290
     0
  0
SCALE
  5
59
102
{ACAD_REACTORS
330
47
102
}
330
47
100
AcDbScale
 70
     0
300
1/128" = 1'-0"
140
0.0078125
141
12.0
290
     0
  0
SCALE
  5
5A
102
{ACAD_REACTORS
330
47
102
}
330
47
100
AcDbScale
 70
     0
300
1/64" = 1'-0"
140
0.015625
141
12.0
290
     0
  0
SCALE
  5
5B
102
{ACAD_REACTORS
330
47
102
}
330
47
100
AcDbScale
 70
     0
300
1/32" = 1'-0"
140
0.03125
141
12.0
290
     0
  0
SCALE
  5
5C
102
{ACAD_REACTORS
330
47
102
}
330
47
100
AcDbScale
 70
     0
300
1/16" = 1'-0"
140
0.0625
141
12.0
290
     0
  0
SCALE
  5
5D
102
{ACAD_REACTORS
330
47
102
}
330
47
100
AcDbScale
 70
     0
300
3/32" = 1'-0"
140
0.09375
141
12.0
290
     0
  0
SCALE
  5
5E
102
{ACAD_REACTORS
330
47
102
}
330
47
100
AcDbScale
 70
     0
300
1/8" = 1'-0"
140
0.125
141
12.0
290
     0
  0
SCALE
  5
5F
102
{ACAD_REACTORS
330
47
102
}
330
47
100
AcDbScale
 70
     0
300
3/16" = 1'-0"
140
0.1875
141
12.0
290
     0
  0
SCALE
  5
60
102
{ACAD_REACTORS
330
47
102
}
330
47
100
AcDbScale
 70
     0
300
1/4" = 1'-0"
140
0.25
141
12.0
290
     0
  0
SCALE
  5
61
102
{ACAD_REACTORS
330
47
102
}
330
47
100
AcDbScale
 70
     0
300
3/8" = 1'-0"
140
0.375
141
12.0
290
     0
  0
SCALE
  5
62
102
{ACAD_REACTORS
330
47
102
}
330
47
100
AcDbScale
 70
     0
300
1/2" = 1'-0"
140
0.5
141
12.0
290
     0
  0
SCALE
  5
63
102
{ACAD_REACTORS
330
47
102
}
330
47
100
AcDbScale
 70
     0
300
3/4" = 1'-0"
140
0.75
141
12.0
290
     0
  0
SCALE
  5
64
102
{ACAD_REACTORS
330
47
102
}
330
47
100
AcDbScale
 70
     0
300
1" = 1'-0"
140
1.0
141
12.0
290
     0
  0
SCALE
  5
65
102
{ACAD_REACTORS
330
47
102
}
330
47
100
AcDbScale
 70
     0
300
1-1/2" = 1'-0"
140
1.5
141
12.0
290
     0
  0
SCALE
  5
66
102
{ACAD_REACTORS
330
47
102
}
330
47
100
AcDbScale
 70
     0
300
3" = 1'-0"
140
3.0
141
12.0
290
     0
  0
SCALE
  5
67
102
{ACAD_REACTORS
330
47
102
}
330
47
100
AcDbScale
 70
     0
300
6" = 1'-0"
140
6.0
141
12.0
290
     0
  0
SCALE
  5
68
102
{ACAD_REACTORS
330
47
102
}
330
47
100
AcDbScale
 70
     0
300
1'-0" = 1'-0"
140
12.0
141
12.0
290
     0
  0
ENDSEC
  0
EOF
